Ukelele tab
Do you have a tab for different instrument? Send it to us.

Asleep in Perfection
Written by Glenn Richards

JB's boobtube

Guitar tab
Tabbed by Tim Byron and Rebecca Deane

   F#7sus4                          F#7sus4     Em         A          D/F#       F#7sus4
e|-0--------|----------|----------|-0--------|:-0--------|-0--------|-2--------|-0--------:|
B|-0--------|----------|----------|-0--------|:-0--------|-2--------|-3--------|-0--------:|
G|-3--------|----------|----------|-3-(fill)-|:-0--------|-2--------|-2--------|-3--------:|
D|-4--------|----------|----------|-4--------|:-2--------|-2--------|-0--------|-4--------:|
A|-4--------|----------|----------|-4--------|:-2--------|-0--------|-0--------|-4--------:|
E|-2--------|----------|----------|-2--------|:-0--------|-x--------|-2--------|-2--------:|
                                    Na na na    Na na      na na na   na         na na na
                                                                                 Over  the

   Em         A          D/F#       F#7sus4    Em         A          D/F#       F#7sus4
e|----0--0--|----------|----------|----------|----0--0--|----------|----------|----------|
B|----0--0--|----2--2--|----------|----0--0--|----0--0--|----2--2--|----------|----0--0--|
G|----------|----2--2--|----2--2--|----3--3--|----------|----2--2--|----2--2--|----3--3--|
D|-2--------|----------|----0--0--|----------|-2--------|----------|----0--0--|----------|
A|----------|-0--------|----------|----------|----------|-0--------|----------|----------|
E|----------|----------|-2--------|-2--------|----------|----------|-2--------|-2--------|
   Air        waves      tonight    Sailing by a love     lonely     light      isn't it

   Em         A7/Bb      Bm         Bm         Bm/A       Bm/A       G 
e|----0--0--|----0--0--|----2--2--|----2--2--|----2--2--|----2--2--|-3--------|
B|----0--0--|----2--2--|----0--0--|----0--0--|----0--0--|----0--0--|-3--------|
G|----------|-0--------|----------|----------|----------|----------|-0--------|
D|-2--------|----------|----------|----------|----------|----------|-0--------|
A|----------|----------|-2--------|-2--------|-0--------|-0--------|-2--------|
E|----------|----------|----------|----------|----------|----------|-3--------|
   Blue       isn't it   brighter than     the pilot of a domestic   flight


  G          F#7sus4     F#7        Em         A          D/F#       F#7sus4
                         Under this low        lonely     light      I might be

  Em         A           D/F#       F#7sus4     Em         A7/Bb
  still      in          sight      You were a girl       now you're a

  Bm         Bm          Bm/A       Bm/A       G          G          A          A
  wife   do not these    memories   stir you.  long and   peaceful night      asleep in per-

   D          Bm         G          A          D          Bm         G          A7/Bb
e|-------2--|-------2--|----------|----------|-------2--|-------2--|----------|-------0--|
B|----3-----|----4-----|-------0--|-------2--|----3-----|----0-----|-------3--|----2-----|
G|----------|----------|----0-----|----2-----|----------|----------|----0-----|-0--------|
D|-0--------|----------|----------|----------|-0--------|----------|----------|----------|
A|----------|-2--------|----------|-0--------|----------|-2--------|----------|----------|
E|----------|----------|-3--------|----------|----------|----------|-3--------|----------|
   fection.                     Asleep in perfection                        The soul's misd-

   Em         A7/Bb      Bm         Bm         G          G          F#7sus4    F#7
irection                        directed at    you        yeah yeah  yeah       Waiting for

 
   Em         A          D/F#       F#7sus4    Em         A          D/F#       F#7sus4  
   Sum-       mer to    come    Will you wear a rain-      bow             and outside your

   Em         A7/Bb      Bm         Bm         Bm/A       Bm/A       G          F#7sus4  
   win-      dow         something grows in    garden,   is it   content?  That's not what

   Em         A          D/F#       F#7sus4    Em         A          D/F#       F#7sus4
 I need       to-        night,     Maybe I    don't      think      right.  Or maybe I

   Em         A7/Bb      Bm         Bm         Bm/A       Bm/B       G          G
   Lack       that       insight and only the  numb and the peaceful might

   A          A 
              sleep in

   D          Bm         G          A          D          Bm         G          A7/Bb
Perfection                       Asleep in perfection                       The soul's   

   Em         A7/Bb      Bm         Bm         Bm/A       G          F#7sus4    F#7sus4
Misdirection                       Directed at you        yeah yeah  yeah

   Bm         Bm         Bm/A       Bm/A       G          G          Em         Em
na na na na na na na na na na na na na na     na                    oooooooh

   Em         Em         F#7sus4    F#7sus4     F#7        F#7
  na na na na na     na na                                over  the

   Em         A          D/F#       F#7sus4    Em         A          D/F#       F#7sus4      
   Air-       waves   tonight       Sailing by lost       lonely     light      Isn't it   

   Em         A7/Bb      Bm         Bm
   blue    but is it the sight of you set

   G          G          F#7        F#7        A          A 
to fall                                                 Asleep in

   D          Bm         G          A             (x3)
Perfection                          Asleep in

   D          Bm         G          A           Em         A7/Bb      Bm         Bm
Perfection                          the soul's misdirection                      directed

   G          G          F#7sus4
at you        yeah yeah  yeah.


EADGBe
F#7sus4	244300		F# C# F# A# B(sus4) e(7)
F#7	242322
Bm	x24432
Bm/A	x04432
G	320033
D	xx0232
A7/Bb	x12020
D/F#	200232