Got a better tab than this? Send it to us.

Believe Me
guitar tab
Written by Glenn Richards
Tabbed by Andrew Allison

repeat 1st phrase 3 times

Guitar 1	 		    
e|-------------------------|-------------------------|
B|---3---3---3---3---3---3-|---3---3---3---3---3---3-|
G|-3---2---3---5---2-------|-------------------------|
D|---------------------3---|-3---3---3---1---1---1---|
A|-------------------------|-------------------------|
E|-------------------------|-------------------------|

Guitar 2
e|-------------------------|-------------------------|
B|-3---3---3---4---4---6---|-------------------------|
G|-------------------------|-5---5---5---3---3---5---|
D|-------------------------|-------------------------|
A|-------------------------|-------------------------|
E|-------------------------|-------------------------|

comments/quries/corrections/accusations/assonance to careful_withthataxe_eugene@hotmail.com