Got a better tab than this one? Send it to us.

Bolte and Dunstan Talk Youth
Written by Glenn Richards

Just the chords (with the capo on 2 like it's probably supposed to be).

not quite finished piano and guitar tab by Rebecca Barton
This is a bit of a mish-mash between treble staff for piano, and tab for the guitar, 
depending which one's playing at the time.  You'll figure it out.  Use the chord on 
top for strumming or the piano left hand.
4/4, D major

      A           G             D                         A           G             D
|-F-#-------------------------|-------------------------|-------------------------|-------------------------|
|        X                    |                         |    X                    |                         |
|-D---------X--------X--------|-------------------------|-------X--------X--------|-------------------------|
|   #          X        X     |                         |          X        X     |                         |
|-B------------------------X--|-------------------------|----------------------X--|-------------------------|
|     X                       | X                       | X                       | X                       |
|-G---------------X-----------|-------------------------|-------------X-----------|-------------------------|
|                             |          X              |                         |          X              |
|-E---------------------------|-------X-----------------|-------------------------|-------X-----------------|
                                   X                                                   X


      A           G             D
                    -X-
                        X
|-F-#----------------------X--|----------X--------------|-------------------------|-------------------------| 
|        X                    | X     X                 |                         |                         |
|-D---------X-----------------|----X--------------------|-------------------------|-------------------------|
|   #          X              |                         |                         |                         |
|-B---------------X-----------|-------------------------|-------------------------|-------------------------|
|     X                       |                         |                         |                         |
|-G---------------------------|-------------------------|-------------------------|-------------------------|
|                             |                         |                         |                         |
|-E---------------------------|-------------------------|-------------------------|-------------------------|


@      D                         Dsus2                     G
   e|:-------2-----------2-----|-------0-----------0-----|-------------------------|-------------------------|
   B|:----3-----3-----3-----3--|----3-----3-----3-----3--|-------3-----------3-----|-------3-----------3-----|
   G|:-2-----------2-----------|-2-----------2-----------|----4-----4-----4-----4--|----4-----4-----4-----4--|
   D|:-------------------------|-------------------------|-5-----------5-----------|-5-----------5-----------|
   A|:-------------------------|-------------------------|-------------------------|-------------------------|
   E|:-------------------------|-------------------------|-------------------------|-------------------------|
       Blind to the charms                          of the Toecutter Arms, 
 When I woke up           it was dark,                     Lying on my side in the   Parliament park, 


      D                         Dsus2                     A                         A7
   e|-------2-----------2-----|-------0-----------0-----|-------0-----------0-----|-------0-----------0-----|
   B|----3-----3-----3-----3--|----3-----3-----3-----3--|----2-----2-----2-----2--|----2-----2-----2-----2--|
   G|-2-----------2-----------|-2-----------2-----------|-2-----------2-----------|-0-----------0-----------|
   D|-------------------------|-------------------------|-------------------------|-------------------------|
   A|-------------------------|-------------------------|-------------------------|-------------------------|
   E|-------------------------|-------------------------|-------------------------|-------------------------|
   My labor to the east      by knit and by darn,
      Puking up my pay in the   gerbera bed, 


      G                         A7                        D                         Dmaj7
   e|-------------------------|-------------------------|-------------------------|-------------------------|
   B|-------3-----------3-----|-------2-----------2-----|-------3-----------3-----|-------2-----------2-----|
   G|----4-----4-----4-----4--|----2-----2-----2-----2--|----2-----2-----2-----2--|----2-----2-----2-----2--|
   D|-5-----------5-----------|-5-----------5-----------|-4-----------4-----------|-4-----------4-----------|
   A|-------------------------|-------------------------|-------------------------|-------------------------|
   E|-------------------------|-------------------------|-------------------------|-------------------------|
      Looking for the world like a whelp at sea,      the discoverer's cottage had a light on for me, 
I could see the Premiers      talking,           hear the husbands in the garden stalking,


      A                         A7                        D                         Dmaj7
   e|-------0-----------0-----|-------0-----------0-----|-------------------------|-------------------------|
   B|----2-----2-----2-----2--|----2-----2-----2-----2--|-------3-----------3-----|-------2-----------2-----|
   G|-2-----------2-----------|-0-----------0-----------|----2-----2-----2-----2--|----2-----2-----2-----2--|
   D|-------------------------|-------------------------|-4-----------4-----------|-4-----------4-----------|
   A|-------------------------|-------------------------|-------------------------|-------------------------|
   E|-------------------------|-------------------------|-------------------------|-------------------------|
      lie on the porch          penny drop easy... 
       Looking for rough love... 


(the tabbing here really only comes in in the last chorus)
      G                                                   D                         
                                                  X
                                                 ---
      X                                     X     X
|-F-#-------------------------|-------------------------|-X-----------------------|-------------------X-----|
|                             |                         |                         |                         |
|-D---X-----X-----------X-----|-------X-----X-----X-----|-X-----------------------|-------------X-----------|
|   #                         |                         |                         |                         |
|-B---X--------X-----X-----X--|----X-----X--X-----X-----|-------------------------|-------------------------|
|                             |                         | X                       |          X              |
|-G---X-----------X-----------|-X-----------X-----------|-------------------------|-------------------------|
|                             |                         |                         |                         |
|-E---------------------------|-------------------------|-------------------------|-------------------------|

   e|-------------------------|-------------------------|-------------------------|-------------------------|
   B|-------3-----------3-----|-------3-----------3-----|-------3-----------3-----|-------2-----------2-----|
   G|----4-----4-----4-----4--|----4-----4-----4-----4--|----2-----2-----2-----2--|----2-----2-----2-----2--|
   D|-5-----------5-----------|-5-----------5-----------|-4-----------4-----------|-4-----------4-----------|
   A|-------------------------|-------------------------|-------------------------|-------------------------|
   E|-------------------------|-------------------------|-------------------------|-------------------------|
      Duly,                                       duly disabled, 


      A7                                                  D                         Dmaj7
      X 
|-F-#-------------------------|-------------------------|-------------------------|-------------------------:|
|     X                       |                         |                         |                         :|
|-D---------------------------|-------------------------|-------------------------|-------------------------:|
|   # X                       |                         |                         |                   X     :|
|-B---------------------------|-------------------X-----|-------------------------|-------------------------:|
|     X                       |                         | X                       |          X              :|
|-G---------------------------|----------X--X-----------|-------------------------|-------------------------:|
|                             |                         | X                       |  X                X     :|
|-E---------------------------|-------------------------|-------------------------|--X-------X--------------:| x2
                                                                                          X     X

   e|-------0-----------0-----|-------0-----------0-----|-------------------------|-------------------------:|
   B|----2-----2-----2-----2--|----2-----2-----2-----2--|-------3-----------3-----|-------2-----------2-----:|
   G|-2-----------2-----------|-0-----------0-----------|----2-----2-----2-----2--|----2-----2-----2-----2--:|
   D|-------------------------|-------------------------|-4-----------4-----------|-4-----------4-----------:|
   A|-------------------------|-------------------------|-------------------------|-------------------------:|
   E|-------------------------|-------------------------|-------------------------|-------------------------:|
      truly,                                        truly lost. 


      G                                                   D                         
Continue to ad-lib the piano like above.
   e|-------------------------|-------------------------|-------------------------|-------------------------|
   B|-------3-----------3-----|-------3-----------3-----|-------3-----------3-----|-------2-----------2-----|
   G|----4-----4-----4-----4--|----4-----4-----4-----4--|----2-----2-----2-----2--|----2-----2-----2-----2--|
   D|-5-----------5-----------|-5-----------5-----------|-4-----------4-----------|-4-----------4-----------|
   A|-------------------------|-------------------------|-------------------------|-------------------------|
   E|-------------------------|-------------------------|-------------------------|-------------------------|
      Duly,                                       duly disabled, 


      A7                                                  D                         Dmaj7

   e|-------0-----------0-----|-------0-----------0-----|-------------------------|-------------------------|
   B|----2-----2-----2-----2--|----2-----2-----2-----2--|-------3-----------3-----|-------2-----------2-----|
   G|-2-----------2-----------|-0-----------0-----------|----2-----2-----2-----2--|----2-----2-----2-----2--|
   D|-------------------------|-------------------------|-4-----------4-----------|-4-----------4-----------|
   A|-------------------------|-------------------------|-------------------------|-------------------------|
   E|-------------------------|-------------------------|-------------------------|-------------------------|
 Beneath the coverlet, beneath the blanket of the morn. 



|-8va-(all of it from here is up an octave)
      A           G             D                         A           G             D
|-F-#-------------------------|-------------------------|-------------------------|-------------------------|
|        X                    |                         |    X                    |                         |
|-D---------X--------X--------|-------------------------|-------X--------X--------|-------------------------|
|   #          X        X     |                         |          X        X     |                         |
|-B------------------------X--|-------------------------|----------------------X--|-------------------------|
|     X                       | X                       | X                       | X                       |
|-G---------------X-----------|-------------------------|-------------X-----------|-------------------------|
|                             |          X              |                         |          X              |
|-E---------------------------|-------X-----------------|-------------------------|-------X-----------------|
                                   X                                                   X


      A           G             D
                    -X-
                        X
|-F-#----------------------X--|----------X--------------|-------------------------|-------------------------| 
|        X                    | X     X                 |                         |                         |
|-D---------X-----------------|----X--------------------|----X--------------------|-------------------------|
|   #          X              |                         | X             bX        |                         |
|-B---------------X-----------|-------------------------|-------------X-----------|--bX---------------------|
|     X                       |                         |       X               X |                         |
|-G---------------------------|-------------------------|-------------------X-----|-------------------------|
|                             |                         |                         |      bX                 |
|-E---------------------------|-------------------------|-------------------------|-------------------------|


Then it's the same again from @, except repeat the eight bars for "there's nothing I wouldn't do..."


On my Exford legs, on my Exford walk, 
Bury my brains in my Exford talk, 
Til there's nothing I wouldn't do 
To be sitting and talking with you. 
Til there's nothing I wouldn't do 
To be sitting and talking with you. 

Duly...