Got a better tab than this? Send it to us.

Bottle Baby
Written by Glenn Richards

JB's boobtube

guitar tab
Tabbed by Rebecca Barton

Bottle Baby
Capo on the 2nd fret.

   Csus4               C                   Am                  G
e|-------------------|-------------------|-------------------|-------------------|
B|-----6-------6-----|-----5-------5-----|-----1-------1-----|-----3-------3-----|
G|-------5---------5-|-------5---------5-|-------2-------2---|-------0---------0-|
D|-----------5-------|-----------5-------|-----------2-----2-|-------------------|
A|-3-----------------|-3-----------------|-0-----------------|-----------2-------|
E|-------------------|-------------------|-------------------|-3-----------------|   X6
Your issue may       walk among           fine moral         spires,
But if they went up  somebody else       built them.
Your store is a        small one,your    goods have no       buyers,
Your parents are       raising your       children.

   F                   Am                  G                   G
e|-------------------|-------------------|-------------------|-------------------|
B|-----1-------1-----|-----1-------1-----|-----3-------3-----|-----3-------3-----|
G|-------2-------2---|-------2-----------|-------0---------0-|-------0---------0-|
D|-------------------|-----------2-----2-|-------------------|-------------------|
A|-----------3-------|-0-----------------|-----------2-------|-----------2-------|
E|-1-----------------|-------------------|-3-----------------|-3-----------------|   X4
 O I could have told you the vices won't hold you
Warm in a coil where you lay,
But high up they hang you,seized by the temple,
And bid you obey and obey

   F                   Em                  G                   G
e|-------------------|-------------------|-------------------|-------------------|
B|-----1-------1-----|-----0-------0-----|-----3-------3-----|-----3-------3-----|
G|-------2-------2---|-------0---------0-|-------0---------0-|-------0---------0-|
D|-------------------|-------------------|-------------------|-------------------|
A|-----------3-------|-----------2-------|-----------2-------|-----------2-------|
E|-1-----------------|-0-----------------|-3-----------------|-3-----------------|   X2
A heinous, heinous law, of an
endless, endless love, that governs your poor 

Back to Csus4: heart