Clockwork
Written by Glenn Richards
tab by Sam Hardwick

Just the guitar tab.
Just the bass tab.
Just the drum tab.
Electric guitar 1: Standard tuning
Electric guitar 2: Standard tuning (misc. guitar parts)
Acoustic guitar: CGCGCE
Bass: Standard tuning
Drums

B = Bass/kick, S = Snare, H = Hihat, C = Crash, R = Ride, T = Tambourine, LT = Left tom, RT = Right tom

Chords:
C          x32010
Fmaj#11    133200
E          022100
Em         022000
Am         x02210
F          133211
Cmaj7add#5 x32100
Fmaj7      xx3210

   |  C          (D/D#|\D\C)            |                 |                 |
   | [electric guitar 1]
E| |--0---------------|-----------------|-0---------------|-----------------|
B| |--1-----------3/4\|\3\1-----------1-|-3p1---------3/4\|\3\1-------------|
G|4|--0-----------0---|-------------0---|-0-----------0---|-----------------|
D|4|--2-----------4/5\|\4\2-------------|-2-----------4/5\|\4\2-------------|
A| |--3-----------5/6/|\5\3-------------|-3-----------5/6\|\5\3-------------|
E| |------------------|-----------------|-----------------|-----------------|
   | [bass]
G| |------------------|-----------------|-----------------|-----------------|
D|4|------------------|-----------------|-----------------|-----------------|
A|4|--3---------------|-----------------|-3---------------|-----------------|
E| |------------------|-----------------|-----------------|-----------------|
   | [drums]
C| |--x---------------|-----------------|-----------------|-----------------|
H|4|------x-------x---|-----x-------x---|-----x-------x---|-----x-------x---|
S|4|------------------|-----------------|-----------------|-----------------|
B| |--o------oo-o-----|-o------oo-o-----|-o------oo-o-----|-o------oo-o-----|
 | |  1 + 2 + 3 + 4 + | 1 + 2 + 3 + 4 + | 1 + 2 + 3 + 4 + | 1 + 2 + 3 + 4 + |
                                                                    It's too

 |  C               |                 |                 |                 |
E|------------------|-----------------|-----------------|-----------------|
B|------------1-3/4\|\3-1-1-----------|-----1-------3/4\|\3-1-1-----------|
G|--------------0---|---0-0-----------|-----0-------0---|---0-0-----------|
D|--------------4/5\|\4-2-------------|-------------4/5\|\4-2-2-----------|
A|-------------h5/6\|\5-3-------------|-------------5/6\|\5---------------|
E|------------------|-----------------|-----------------|-----------------|
 |
G|------------------|-----------------|-----------------|-----------------|
D|------------------|-----------------|-----------------|-----------------|
A|--3---------------|-----------------|-3---------------|-----------------|
E|------------------|-----------------|-----------------|-----------------|
 |
H|------x-------x---|-----x-------x---|-----x-------x---|-----x-------x---|
S|------------------|-----------------|-----------------|-----------------|
B|--o------oo-o-----|-o------oo-o-----|-o------oo-o-----|-o------oo-o-----|
 |  1 + 2 + 3 + 4 + | 1 + 2 + 3 + 4 + | 1 + 2 + 3 + 4 + | 1 + 2 + 3 + 4 + |
  hot babe, pull the covers back.                                    Don't

 |  C               |                 |                 |                 |
E|------------------|-----------------|-----------------|-----------------|
B|--------------3/4\|\3-1-1-----------|-----1-------3/4\|\3-1-1---------0-|
G|--------------0---|---0-0-----------|---0---------0---|---0---------0---|
D|--------------4/5\|\4-2-------------|-2-----------4/5\|\4-2---------2---|
A|-------------h5/6\|\5-3-------------|-------------5/6\|\5-3---------3---|
E|------------------|-----------------|-----------------|-----------------|
 |
G|------------------|-----------------|-----------------|-----------------|
D|------------------|-----------------|-----------------|-----------------|
A|--3---------------|-----------------|-3---------------|-----------------|
E|------------------|-----------------|-----------------|-----------------|
 |
H|------x-------x---|-----x-------x---|-----x-------x---|-----x-------x---|
S|------------------|-----------------|-----------------|-----------------|
B|--o------oo-o-----|-o------oo-o-----|-o------oo-o-----|-o------oo-o-----|
 |  1 + 2 + 3 + 4 + | 1 + 2 + 3 + 4 + | 1 + 2 + 3 + 4 + | 1 + 2 + 3 + 4 + |
  touch me babe, I don't remember ever liking that.                  Don't

 |  Fmaj#11    (G/G#|\G\F)            | C               |                 |
E|--------------0---|-----------------|--------------0-0|-----------------|
B|--------------0---|-----0-----------|-----1--------1-0|h1---------------|
G|------2-------4/5\|\4\2-------------|-0------------0-0|-----------------|
D|--------------5/6\|\5\3-------------|-2------------2-2|-----------------|
A|--------------5/6\|\5\3-------------|-3------------3-3|-----------------|
E|--------------3/4\|\3\1-------------|-----------------|-----------------|
 |
G|------------------|-----------------|-----------------|-----------------|
D|--3---------3-5-6-|-5-3-------------|-----------------|-----------------|
A|------------------|-----------------|-3---------------|-----------------|
E|------------------|-----------------|-----------------|-----------------|
 |
H|------x-------x---|-----x-------x---|-----x-------x---|-----x-------x---|
S|------------------|-----------------|-----------------|-----------------|
B|--o------oo-o-----|-o------oo-o-----|-o------oo-o-----|-o------oo-o-----|
 |  1 + 2 + 3 + 4 + | 1 + 2 + 3 + 4 + | 1 + 2 + 3 + 4 + | 1 + 2 + 3 + 4 + |
  touch me babe, roll over.

 |  C               |                 | | Fmaj#11     |
E|------0---0-------|-----------------| |-----0-------|
B|------3---3-1-----|-----3-1---------| |-----0-------|
G|----0-------------|---0-----0-----0-|3|-----2-----2-|
D|--2---------------|-----------------|4|-----3-----3-|
A|--3---------------|-3---------------| |-----3-----3-|
E|------------------|-----------------| |-1---------1-|
 |
G|------------------|-----------------| |-------------|
D|------------------|-----------------|3|-3-----------|
A|--3---------------|-3---------------|4|-------------|
E|------------------|-----------------| |-------------|
 |                                    
H|------x-------x---|-----x-------x---| |-----x-------|
S|------------------|-----------------|3|-------------|
B|--o-------o-o-----|-o------oo-o-----|4|-o------oo-o-|
 |  1 + 2 + 3 + 4 + | 1 + 2 + 3 + 4 + | | 1 + 2 + 3 + |
  O brother, you don't know what you've got, only time flies...


   |  C               |                 | Fmaj#11         |                 |
E| |--0---0---0-0-----|-0-0-0-----------|-----0-----------|-----0--------00-|
B| |--1---3---3-1-----|-3-----1-1-------|-----0-----------|-----0--------000|
G|4|--0---0---0-0-----|-0-------0-----0-|-----2-------4/5-|-4\2-2--------22-|
D|4|--2---------------|---------2-------|-----3-------5/6-|-5\3-3--------3--|
A| |--3---------------|---------3-------|-3-----------5/6-|-5\3----------3--|
E| |------------------|-----------------|-1-----------3/4-|-3\1-------------|
   |
G| |------------------|-----------------|-----------------|-----------------|
D|4|------------------|-----------------|-3---------3-5-6-|-5-3-3-----------|
A|4|--3---------------|-----------------|-----------------|-----------------|
E| |------------------|-----------------|-----------------|-----------------|
   |
H| |--x---x-------x---|-----x-------x---|-----x-------x---|-----x-------x---|
S|4|------------------|-----------------|-----------------|-----------------|
B|4|---------oo-o-----|-o------oo-o-----|-o------oo-o-----|-o------oo-o-----|
 | |  1 + 2 + 3 + 4 + | 1 + 2 + 3 + 4 + | 1 + 2 + 3 + 4 + | 1 + 2 + 3 + 4 + |
    O brother, you don't know what you've got, only time flies... you've gotta do some

 ||  C               |                 |                 |                  ||
 || [electric guitar 1]
 ||                                                            Play five times
E||------0-----0-0---|-----0-----------|-0---0-----------|-----0------------||
B||------1-----1-3/4-|-3\1-1-----------|-1-----------3/4-|-3\1-1------------||
G||o-----0-----0-0---|-0---0-----------|-0-----------0---|-0---0-----------o||
D||o-2---------2-4/5-|-4\2-2-----------|-2-----------4/5-|-4\2-2-----------o||
A||--3---------3-5/6-|-5\3-3-----------|-3-----------5/6-|-5\3-3------------||
E||------------------|-----------------|-----------------|------------------||
 || [acoustic guitar]
E||------------------|-----------------|-----------------|------------------||
C||------------------|-----------------|-----------------|------------------||
G||o--0-0-0-0-0-0-0-0|--0-0-0-0-0-0-0-0|--0-0-0-0-0-0-0-0|--0-0-0-0-0-0-0-0o||
C||o---4---4---4---4-|---4---4---4---4-|---4---4---4---4-|---4---4---4---4-o||
G||------------------|-----------------|-----------------|------------------||
C||--0---0---0---0---|-0---0---0---0---|-0---0---0---0---|-0---0---0---0----||
 || [bass]
G||------------------|-----------------|-----------------|------------------||
D||o-----------------|-----------------|-----------------|-----------------o||
A||o-3---------3-5-6-|-5-3-3-----------|-3---------3-5-6-|-5-3-3-----------o||
E||------------------|-----------------|-----------------|------------------||
 || [drums]
H||------x-------x---|-----x-------x---|-----x-------x---|-----x-------x----||
S||o-----O-------O---|-----O-------O---|-----O-------O---|-----O-------O---o||
B||o-o-------o-o-----|-o-------o-o-----|-o-------o-o-----|-o-------o-o-----o||
 ||  1 + 2 + 3 + 4 + | 1 + 2 + 3 + 4 + | 1 + 2 + 3 + 4 + | 1 + 2 + 3 + 4 +  ||
  clockwork.                                         Sometimes you hear the
  broken bell                                               sound up on the
  whore's hill.                                   The ladies clamor for the
  Salvo's sale,                                              bickering like
  little girls,                                             for second hand

 |  Fmaj#11         |                 | C               |                 |
 |
E|------0-----------|---------------00|-----0--------0-0|-0-------------0-|
B|------0-----------|-----0---------00|-----1--------1-0|h1-----------1---|
G|------2-----------|-----2---------22|-----0--------0-0|-0-------------0-|
D|--3---------3/5/6\|\5\3---------3---|-2------------2-2|-2---------------|
A|--3---------3/5/6\|\5\3-------------|-3------------3-3|-3---------3-----|
E|--1---------1/3/4\|\3\1-------------|-----------------|-----------------|
 |
E|------------------|-----------------|-----------------|-----------------|
C|---0-0-0-0-0-0-0-0|--0-0-0-0-0-0-0-0|-----------------|-----------------|
G|----2---2---2---2-|---2---2---2---2-|--0-0-0-0-0-0-0-0|--0-0-0-0-0-0-0-0|
C|------------------|-----------------|---4---4---4---4-|---4---4---4---4-|
G|------------------|-----------------|-----------------|-----------------|
C|--5---5---5---5---|-5---5---5---5---|-0---0---0---0---|-0---0---0---0---|
 |
G|------------------|-----------------|-----------------|-----------------|
D|--3---------3-5-6-|-5-3-3-----------|-----------------|-----------------|
A|------------------|-----------------|-3---------------|-3---------------|
E|------------------|-----------------|-----------------|-----------------|
 |
H|------x-------x---|-----x-------x---|-----x-------x---|-----x-------x---|
S|------O-------O---|-----O-------O---|-----O-------O---|-----O-------O---|
B|--o-------o-o-----|-o-------o-o-----|-o-------o-o-----|-o-------o-o-----|
 |  1 + 2 + 3 + 4 + | 1 + 2 + 3 + 4 + | 1 + 2 + 3 + 4 + | 1 + 2 + 3 + 4 + |
  women's things, for countless prying mans' hands.

 |  C               |                 | | Fmaj#11     |
E|------0--00-0-----|-0---------------| |-----0-------|
B|------3--33-1-----|-1-----1-----1---| |-----0-------|
G|------0--00-0-----|-0-------0-------|3|-----2-------|
D|------2--22-2-----|-2---------------|4|-----3-----3-|
A|--3---------------|-3---------------| |-----3-----3-|
E|------------------|-----------------| |-----1-----1-|
 |
E|------------------|-----------------| |-------------|
C|------------------|-----------------| |--0-0-0-0-0-0|
G|---0-0-0-0-0-0-0-0|--0-0-0-0-0-0-0-0|3|---2---2---2-|
C|----4---4---4---4-|---4---4---4---4-|4|-------------|
G|------------------|-----------------| |-------------|
C|--0---0---0---0---|-0---0---0---0---| |-5---5---5---|
 |
G|------------------|-----------------| |-------------|
D|------------------|---------------0-|3|-3-----------|
A|--3---------------|--------------3--|4|-------------|
E|------------------|-----------------| |-------------|
 |                                    
H|------x---x---x---|-x---x---x---x---| |-x---X---x---|
S|------O-------O---|-----O-------O---|3|-----O-------|
B|--o-------o-------|-o-------o-------|4|-o-----------|
 |  1 + 2 + 3 + 4 + | 1 + 2 + 3 + 4 + | | 1 + 2 + 3 + |
  O working girl, you don't get round enough, it's like yr daddy says...

   |  C               |                 | Fmaj#11         |                 |
E| |--0---0---0------0|-0-0-0-0-0---0---|-----0-----------|-----0-------0---|
B| |--1---3---3-1-----|-3-3-3-1-1-------|-----0-----------|-----0-------0---|
G|4|--0---------------|-0-------0-----0-|-----2-----------|-----2-------2---|
D|4|--2---------------|-----------------|-----3-------5/6\|\5\3-3-----3-3---|
A| |--3---------------|-----------------|-3-----------5/6\|\5\3-------3---3-|
E| |------------------|-----------------|-1-----------3/4\|\3\1-------1---1-|
   |
E| |------------------|-----------------|-----------------|-----------------|
C| |------------------|-----------------|--0-0-0-0-0-0-0-0|--0-0-0-0-0-0-0-0|
G|4|---0-0-0-0-0-0-0-0|--0-0-0-0-0-0-0-0|---2---2---2---2-|---2---2---2---2-|
C|4|----4---4---4---4-|---4---4---4---4-|-----------------|-----------------|
G| |------------------|-----------------|-----------------|-----------------|
C| |--0---0---0---0---|-0---0---0---0---|-5---5---5---5---|-5---5---5---5---|
   |
G| |------------------|-----------------|-----------------|-----------------|
D|4|------------------|-----------------|-3---------3-5-6-|-5-3-3-----------|
A|4|--3---------------|-----------------|-----------------|-----------------|
E| |------------------|-----------------|-----------------|-----------------|
   |
H| |--x---x---x---x---|-x---x---x---x---|-x---x---x---x---|-x---x---x---x---|
S|4|------O-------O---|-----O-------O---|-----O-------O---|-----O-------O---|
B|4|--o-------o-------|-o-------o-------|-o-------o-------|-o-------o-------|
 | |  1 + 2 + 3 + 4 + | 1 + 2 + 3 + 4 + | 1 + 2 + 3 + 4 + | 1 + 2 + 3 + 4 + |
  O working girl, you don't get round enough, it's like yr daddy says... you gotta do some

 |  C               |                 |                 |                 |
E|------0-----0-----|-----------------|-----------------|-----------------|
B|------1-----1-3/4-|-6\4-3\1-3-4-3\1-|-----------1-3/4-|-6\4-3\1-3-4-3\1-|
G|------0-----0-0---|-0---0---0-0-0---|-----------0-0---|-0---0---0-0-0---|
D|--2---------2-4/5-|-7\5-4\2-4-5-4\2-|-----------2-4/5-|-7\5-4\2-4-5-4\2-|
A|--3---------3-5/6-|-8\6-5\3-5-6-5\3-|-----------3-5/6-|-8\6-5\3-5-6-5\3-|
E|------------------|-----------------|-----------------|-----------------|
 | Acoustic guitar - fade out.
E|------------------|-----------------|-----------------|-----------------|
C|------------------|-----------------|-----------------|-----------------|
G|---0-0-0-0-0-0-0-0|--0-0-0-0-0-0-0-0|--0-0-0-0-0-0-0-0|--0-0-0-0-0-0-0-0|
C|----4---4---4---4-|---4---4---4---4-|---4---4---4---4-|---4---4---4---4-|
G|------------------|-----------------|-----------------|-----------------|
C|--0---0---0---0---|-0---0---0---0---|-0---0---0---0---|-0---0---0---0---|
 |
G|------------------|-----------------|-----------------|-----------------|
D|------------------|-----------------|-----------------|-----------------|
A|--3-----------5-6-|-8-6-5-3-5-6-5-3-|-----------3-5-6-|-8-6-5-3-5-6-5-3-|
E|------------------|-----------------|-----------------|-----------------|
 |
H|--x-x-x-x-x-x-x-x-|-x-x-x-x-x-x-x-x-|-x-x-x-x-x-x-x-x-|-x-x-x-x-x-x-x-x-|
S|------O-------O---|-----O-------O---|-----O-------O---|-----O-------O---|
B|--o-------o-------|-o-------o-------|-o-------o-------|-o-------o-o-----|
 |  1 + 2 + 3 + 4 + | 1 + 2 + 3 + 4 + | 1 + 2 + 3 + 4 + | 1 + 2 + 3 + 4 + |
  clockwork. (In a berth of the port wharf the song of the penitent sailor... upon what stage?
A slab in the gut of a Japanese

 | Fmaj#11          |                 | E               |                 |
 | [electric guitar 1]
E|--0---0-----0-----|-----------------|-------0---------|-----0--------0--|
B|--0---0-0---0-----|-----------------|-------0-------0-|-----0--------0--|
G|--2---2-2---2-----|-----------------|-------1-------1-|-----2-------22--|
D|--3-----3-3-3-----|-----------------|-------2-----x-2-|-3-3-3-------333-|
A|--3-------3-3-5-6-|-8-6-5-3-5-6-5-3-|-2-----------x-2-|-3-3-3-------3-3-|
E|--1-------1-1-3-4-|-6-4-3-1-3-4-3-1-|-0-----------x-0-|-1-1-1-------1-1-|
 | [bass]
G|------------------|-----------------|-------0h2-3-4---|-----------------|
D|------------------|-----------------|---------------2-|-3---------------|
A|------------------|-----------------|-----------------|-----------------|
E|--1---------1-3-4-|-6-4-3-1-3-4-3-1-|-0---------------|-----------------|
 | [drums]
H|--x-x-x-x-x-x-x-x-|-x-x-x-x-x-x-x-x-|-x-x-x-x-x-x-x-x-|-x-x-x-x-x-x-x-x-|
S|------O-------O---|-----O-------O---|-----O-------O---|-----O-------O---|
B|--o-------o-------|-o-------o-------|-o-------o-------|-o-------o-------|
 |  1 + 2 + 3 + 4 + | 1 + 2 + 3 + 4 + | 1 + 2 + 3 + 4 + | 1 + 2 + 3 + 4 + |
  whaler... a material blue and tailored and time is a tailor... both brief and slow.)

   ||  C           | Em          | Am          | F           ||
   ||                                                Play twice
E| ||------0---0---|-----0---0---|-----0---0-0-|-----1---1-1-||
B| ||------1---1---|-----0---0---|-----1---1-1-|-----1---1-1-||
G|3||o-0---0---0---|-0---0---0---|-2---2---2---|-2---2---2-2o||
D|4||o-2---2---2---|-2---2---2---|-2---2---2---|-3---3---3-3o||
A| ||--3---3---3---|-2---2---2---|-0---0---0---|-3---3---3-3-||
E| ||--------------|-0---0---0---|-------------|-1---1---1-1-||
   ||
G| ||--------------|-------------|-------------|-------------||
D|3||o-------------|-------------|-------------|------------o||
A|4||o-3-----------|-------------|-0-----------|------------o||
E| ||--------------|-0-----------|-------------|-1-----------||
   ||
T| ||----------x---|-------------|---------x---|-------------||
C| ||--x-----------|-------------|-x-----------|-------------||
R|3||o-------------|-x-----------|-------------|-x----------o||
S|4||o-----O---O---|-----O---O---|-----O---O---|-----O---O--o||
B| ||--O-----------|-O-----------|-O-----------|-O-----------||
 | ||  1 + 2 + 3 + | 1 + 2 + 3 + | 1 + 2 + 3 + | 1 + 2 + 3 + ||

 |  C           | Em          | Am          | F           |
E|------0---0---|-----0---0---|-----0---0---|-----1---1-1-|
B|------1---1---|-----0---0---|-----1---1---|-----1---1-1-|
G|--0---0---0---|-0---0---0---|-2---2---2---|-2---2---2-2-|
D|--2---2---2---|-2---2---2---|-2---2---2---|-3---3---3-3-|
A|--3---3---3---|-2---2---2---|-0---0---0---|-3---3---3-3-|
E|--------------|-0---0---0---|-------------|-1---1---1-1-|
 |
G|--------------|-------------|-------------|-------------|
D|--------------|-------------|-------------|-------------|
A|--3-----------|-------------|-0-----------|-------------|
E|--------------|-0-----------|-------------|-1-----------|
 |
T|----------x---|---------x---|---------x---|---------x---|
C|------X---X---|-----X---X---|-----X---X---|-----X---X---|
R|--X-----------|-x-----------|-x-----------|-x-----------|
S|------O---O---|-----O---O---|-----O---O---|-----O---O---|
B|--O-----------|-O-----------|-O-----------|-O-----------|
 |  1 + 2 + 3 + | 1 + 2 + 3 + | 1 + 2 + 3 + | 1 + 2 + 3 + |

    |  E                       | F                       |
E | |--------0-----0--0--0--0--|-1-----1-----1-----1-----|
B | |--------0-----0--0--0--0--|-1-----1-----1-----1-----|
G |4|--------1----/13-13-13-13-|-2--2--2--2--2--2--2--2--|
D |4|--2-----2----/14-14-14-14-|-3--3--3--3--3--3--3--3--|
A | |--2-----2----/14-14-14-14-|-3--3--3--3--3--3--3--3--|
E | |--0-----0-----0--0--0--0--|-1--1--1--1--1--1--1--1--|
    |
G | |--------------------------|-------------------------|
D |4|--------------------------|-------------------------|
A |4|--------------2--2--2--2--|-------------3--3--3--3--|
E | |--0--0--0--0--------------|-1--1--1--1--------------|
    |
C | |--X-----------------------|-------------------------|
R | |--------X--x--x--x--X--x--|-x--x--X--x--------------|
S |4|--------O-----------O-----|-------O----oooooo-------|
LT|4|--------------------------|------------------oooo---|
RT| |--------------------------|----------------------ooo|
B | |--o--------------o--------|-o-----------------------|
  | |  1  +  2  +  3  +  4  +  | 1  +  2  +  3 + a 4 + a |
                                      Both brief and slow.

 |  C               |                 |                 |                 |
 | [electric guitar 1]
 | (Solo with heavy distortion, wah wah and feedback)
 | [electric guitar 2]
E|------0-------0---|-----------------|-----------------|-----------------|
B|------------------|-----3-------3---|-----1-------1---|-----0-------0---|
G|----0---0---0---0-|---0---0---0---0-|---0---0---0---0-|---0---0---0---0-|
D|------------------|-----------------|-----------------|-----------------|
A|--3-------3-------|-3-------3-------|-3-------3-------|-3-------3-------|
E|------------------|-----------------|-----------------|-----------------|
 | [bass]
G|------------------|-----------------|-----------------|-----------------|
D|------------------|-----------------|-----------------|-----------------|
A|--3-3-3-3-3-3-3-3-|-3-3-3-3-3-3-3-3-|-3-3-3-3-3-3-3-3-|-3-3-3-3-3-3-3-3-|
E|------------------|-----------------|-----------------|-----------------|
 | [drums]
C|--X---------------|-----------------|-----------------|-----------------|
R|------X-x-x-x-X-x-|-x-x-X-x-x-x-X-x-|-x-x-X-x-x-x-X-x-|-x-x-X-x-x-x-X-x-|
S|------O-------O---|-----O-------O---|-----O-------O---|-----O-------O---|
B|--o-------o-o-----|-o-------o-o-----|-o-------o-o-----|-o-------o-o-----|
 |  1 + 2 + 3 + 4 + | 1 + 2 + 3 + 4 + | 1 + 2 + 3 + 4 + | 1 + 2 + 3 + 4 + |

 |  F               |                 | C               |                 |
 |                                     Wah wah & distortion off.
E|------------------|-----------------|-0---0---0-0-0-0-|-0---0---0---0-0-|
B|------------------|-----------------|-1---1---1-1-1-1-|-1---1---1---1-1-|
G|-----------(feedback solo)----------|-0---0---0-0-0-0-|-0---0---0---0-0-|
D|------------------|-----------------|-2---2--22-2-2-2-|-2-2-2-2-2-2-2-2-|
A|------------------|-----------------|-3---3--33-3-3-3-|-3-3-3-3-3-3-3-3-|
E|------------------|-----------------|-----------------|-----------------|
 |
E|------------------|-----------------|-------------8---|-----------------|
B|------0-----------|-----------------|---------------8-|-----------------|
G|--------0---------|-----------------|-----------------|-9---------------|
D|------------------|-----------------|-----------------|-----------------|
A|------------------|---------6---5---|-----------------|-----------------|
E|--1---------1-3-4-|-3-1-3-4---------|-----------------|-----------------|
 |
G|------------------|-----------------|-----------------|-----------------|
D|------------------|-----------------|-----------------|-----------------|
A|------------------|-----------------|-3-3-3-3-3-3-5-6-|-5-3-3-3-3-3-3-3-|
E|--1-1-1-1-1-1-3-4-|-3-1-1-1-1-1-1-1-|-----------------|-----------------|
 |
C|--X---------------|-----------------|-----------------|-------------X---|
R|----x-X-x-x-x-X-x-|-x-x-X-x-x-x-X-x-|-x-x-X-x-x-x-X-x-|-x-x-X-x-x-x---x-|
S|------O-------O---|-----O-------O---|-----O-------O---|-----O-------O---|
B|--o-------o-o-----|-o-------o-o-----|-o-------o-o-----|-o-------o-o-----|
 |  1 + 2 + 3 + 4 + | 1 + 2 + 3 + 4 + | 1 + 2 + 3 + 4 + | 1 + 2 + 3 + 4 + |
                                                        Now I can hear the

 ||  C               |                 |                 |                 ||
 ||                                                                Play twice
 || [electric guitar 1]
E||------0-----0-0-0-|-0-0-0-------0---|-----0-----0-0-0-|-0-0-0-------0-0-||
B||------1-----1-3-4-|-3-1-1-------1---|-----1-----1-3-4-|-3-1-1-------1-1-||
G||o-----0-----0-0-0-|-0-0-0-------0---|-----0-----0-0-0-|-0-0-0-------0-0o||
D||o-2-2-2-2-2-2-4-5-|-4-2-2-2-2-2-2-2-|-2-2-2-2-2-2-4-5-|-4-2-2-2-2-2-2-2o||
A||--3-3-3-3-3-3-5-6-|-5-3-3-3-3-3-3-3-|-3-3-3-3-3-3-5-6-|-5-3-3-3-3-3-3-3-||
E||------------------|-----------------|-----------------|-----------------||
 || [bass]
G||------------------|-----------------|-----------------|-----------------||
D||o-----------------|-----------------|-----------------|----------------o||
A||o-3-3-3-3-3-3-5-6-|-5-3-3-3-3-3-3-3-|-3-3-3-3-3-3-5-6-|-5-3-3-3-3-3-3-3o||
E||------------------|-----------------|-----------------|-----------------||
 || [drums]
C||--X---------------|-----------------|-----------------|-----------------||
R||o---x-X-x-X-x-X-x-|-X-x-X-x-X-X-X-x-|-X-x-X-x-X-x-X-x-|-X-x-X-x-X-x-X-xo||
S||o-----O-------O---|-----O-------O---|-----O-------O---|-----O-------O--o||
B||--o-------o-o-----|-o-------o-o-----|-o-------o-o-----|-o-------o-o-----||
 ||  1 + 2 + 3 + 4 + | 1 + 2 + 3 + 4 + | 1 + 2 + 3 + 4 + | 1 + 2 + 3 + 4 + ||
   broken bell, now I can hear the clockwork     it has me reaching for the
   hidden rail, it has me listening for the songbird,    but I hear it very

 |  F                       |                         |
E|--1-----1--------1--3--4--|-3--1--1-----------1--0--|
B|--1-----1--------1--3--4--|-3--1--1-----------1--0--|
G|--2-----2--------2--4--5--|-4--2--2-----------2--2--|
D|--3--3--3--3--3--3--5--6--|-5--3--3--3--3--3--3--3--|
A|--3--3--3--3--3--3--5--6--|-5--3--3--3--3--3--3--3--|
E|--1--1--1--1--1--1--3--4--|-3--1--1--1--1--1--1--1--|
 |
G|--------------------------|-------------------------|
D|--------------------------|-------------------------|
A|--------------------------|-------------------------|
E|--1--1--1--1--1--1--3--4--|-3--1--1--1--1--1--1--1--|
 |
C|--X-----------------------|-------------------------|
R|-----x--X--x--X--x--X--x--|-X--x--X--x--X--x--X--x--|
S|--------O-----------O-----|-------O-----------O-----|
B|--o-----------o--o--------|-o-----------o--o--------|
 |  1  +  2  +  3  +  4  +  | 1  +  2  +  3  +  4  +  |
  minor,                            but I hear it very

 |  C                       |                                     |
E|--0--0--0--0--0--0--0--0--|-0-0-0-0-0-0-0-0-0-0-0-0-0--0--0--0--|
B|--1--1--1--1--1--1--1--1p0|h1-1-1-1-1-1-1-1-1-1-3-3-3--3--3--3--|
G|--0--0--0--0--0--0--0--0--|-0-0-0-0-0-0-0-0-0-0-0-0-0--0--0--0--|
D|--2--2--2--2--2--2--2--2--|-2-2-2-2-2-2-2-2-2-2-2-2-2--2--2--2--|
A|--3--3--3--3--3--3--3--3--|-3-3-3-3-3-3-3-3-3-3-3-3-3--3--3--3--|
E|--------------------------|-------------------------------------|
 |
G|--------------------------|-------------------------------------|
D|--------------------------|-------------------------------------|
A|--3--3--3--3--3--3--3--3--|-3---3---3---3---3---3---3-----3-----|
E|--------------------------|-------------------------------------|
 |
C|--------------------------|-X-----------------------------------|
R|--X--x--X--x--x--x--X--x--|-----x---X---x---x---x---x--x--x--x--|
S|--------O-----------O-----|---------O---------------O--O--------|
B|--o-----------o--o--------|-o---------------o---o---------------|
 |  1  +  2  +  3  +  4  +  | 1   +   2   +   3   +   4  e  +  a  |
  minor...

 |  C               |                 | | Fmaj#11           |
E|------0---0-0-----|-0-0-0-0-0-------| |-0-----0--------0--|
B|------3---3-1-----|-3-3-3-1-1-------| |-0-----0--------0--|
G|------0---0-0-----|-0-0-0-0-0-------|3|-2-----2--------2--|
D|--2-2-2-2-2-2-2-2-|-2-2-2-2-2-2-2-2-|4|-3-----3---3-3--3--|
A|--3-3-3-3-3-3-3-3-|-3-3-3-3-3-3-3-3-| |-3-----3---3-3--3--|
E|------------------|-----------------| |-1-----1---1-1--1--|
 |
G|------------------|-----------------| |-------------------|
D|------------------|-----------------|3|-3--3--3--3--3--3--|
A|--3-3-3-3-3-3-3-3-|-3-3-3-3-3-3-3-3-|4|-------------------|
E|------------------|-----------------| |-------------------|
 |
C|--X---------------|-----------------| |-X--------------X--|
R|----x-X-x-X-x-X-x-|-X-x-X-x-X-x-X-x-|3|----x--X--x--X-----|
S|------O-------O---|-----O-------O---|4|-------O--------O--|
B|--o-------o-o-----|-o-------o-o-----| |-o-----------o-----|
 |  1 + 2 + 3 + 4 + | 1 + 2 + 3 + 4 + | | 1  +  2  +  3  +  |
  O singer, I don't believe your song, or your lying lines,

   |  C               |                 | F               |                 |
E| |------0---0-0-----|-0-0-0-0-0-------|-----------1-3-4-|-3-1-1-----------|
B| |------3---3-1-----|-3-3-3-1-1-------|-----------1-3-4-|-3-1-1-----1-1-1-|
G|4|------0---0-0-----|-0-0-0-0-0-------|-----------2-6-5-|-4-2-2-----2-2-2-|
D|4|--2-2-2-2-2-2-2-2-|-2-2-2-2-2-2-2-2-|-3-3-3-3-3-3-5-6-|-5-3-3-3-3-3-3-3-|
A| |--3-3-3-3-3-3-3-3-|-3-3-3-3-3-3-3-3-|-3-3-3-3-3-3-5-6-|-5-3-3-3-3-3-3-3-|
E| |------------------|-----------------|-1-1-1-1-1-1-3-4-|-3-1-1-1-1-1-1-1-|
   |
G| |------------------|-----------------|-----------------|-----------------|
D|4|------------------|-----------------|-3-3-3-3-3-3-5-6-|-5-3-3-3-3-3-3-3-|
A|4|--3-3-3-3-3-3-3-3-|-3-3-3-3-3-3-3-3-|-----------------|-----------------|
E| |------------------|-----------------|-----------------|-----------------|
   |
C| |--X---------------|-----------------|-X---------------|---------------x-|
R|4|----x-X-x-X-x-X-x-|-X-x-X-x-X-x-X-x-|---x-X-x-X-x-X-x-|-X-x-X-x-X-x-X---|
S|4|------O-------O---|-----O-------O---|-----O-------O---|-----O-------O---|
B| |--o-------o-o-----|-o-------o-o-----|-o-------o-o-----|-o-------o-o-----|
   |  1 + 2 + 3 + 4 + | 1 + 2 + 3 + 4 + | 1 + 2 + 3 + 4 + | 1 + 2 + 3 + 4 + |
    O singer, I don't believe your song, or your lying lines... you've gotta do some

 |  C               |                 |                 |                 |
E|------0-------0-0-|-0-0-0-------0---|-----0-------0-0-|-0---0-------0---|
B|------1-------3-4-|-3-1-1-------1---|-----1-------3-4-|-3---1-------3---|
G|------0-------0-0-|-0-0-0-------0---|-----0-------0-0-|-0---0-------0---|
D|--2-2-2-2-2-2-4-5-|-4-2-2-2-2-2-2-2-|-2-2-2-2-2-2-4-5-|-4-2-2-2-2-2-2---|
A|--3-3-3-3-3-3-5-6-|-5-3-3-3-3-3-3-3-|-3-3-3-3-3-3-5-6-|-5-3-3-3-3-3-3---|
E|------------------|-----------------|-----------------|-----------------|
 |
G|------------------|-----------------|-----------------|-----------------|
D|------------------|-----------------|-----------------|-----------------|
A|--3-3-3-3-3-3-5-6-|-5-3-3-3-3-3-3-3-|-3-3-3-3-3-3-5-6-|-5-3-3-3-3-3-3-3-|
E|------------------|-----------------|-----------------|-----------------|
 |
C|--X---------------|-----------------|-X---------------|-----------------|
R|----x-X-x-X-x-X-x-|-X-x-X-x-X-x-X-x-|---x-X-x-X-X-X-x-|-X-x-X-x-X-x-X-X-|
S|------O-------O---|-----O-------O---|-----O-------O---|-----O-------O---|
B|--o-------o-o-----|-o-------o-o-----|-o-------o-o-----|-o-------o-o-----|
 |  1 + 2 + 3 + 4 + | 1 + 2 + 3 + 4 + | 1 + 2 + 3 + 4 + | 1 + 2 + 3 + 4 + |
  clockwork,      you've gotta do some clockwork,     you've gotta do some

    | C                |                 |                 |                 |
E | |--0---0-------0---|-0---0-------0---|-0---0-------0---|-0---0-------0---|
B | |--3---3-------3---|-3---3-------1---|-3---3-------3---|-3---3-------1-0-|
G |2|--0---0-------0---|-0---0-------0---|-0---0-------0---|-0---0-------0---|
D |4|--2---2-------2---|-2---2-------2---|-2---2-------2---|-2---2-------2---|
A | |--3---3-------3---|-3---3-------3---|-3---3-------3---|-3---3-------3---|
E | |------------------|-----------------|-----------------|-----------------|
    |
G | |------------------|-----------------|-----------------|-----------------|
D |2|------------------|-----------------|-----------------|-----------------|
A |4|--3---3-------3---|-3---3-------3---|-3---3-------3---|-3---3-------3---|
E | |------------------|-----------------|-----------------|-----------------|
    |
C | |----------X-------|---------X-------|---------X-------|---------X-------|
R | |--X---X-----------|-----------------|-----------------|-----------------|
S |2|----------O-------|---------O-------|---------O-------|---------O-------|
FT|4|--------------O---|-O---O-------O---|-O---O-------O---|-O---O-------O---|
B | |--O---O-------O---|-O---O-------O---|-O---O-------O---|-O---O-------O---|
  | |  1   +   2   +   | 1   +   2   +   | 1   +   2   +   | 1   +   2   +   |
     clockwork: The Pneuma, Cecilian, the Metzler, Angelus, Virt(uos),

  |  Cmaj7add#5      |                   | Fmaj7               | C               |
  | [electric guitar 1]
E |--0---0-------0---|-0---0-------0---| |-0-------------000000|-0---0---0-0-0-0-|
B |--0---0-------0---|-0---0-------0---| |-1-------2-2-2-222222|-1---1---1-1-3-4-|
G |--1---1-------1---|-1---1-------1---|4|-2-2-2-2/3-3-3-333333|-0---0---0-0-0-0-|
D |--2---2-------2---|-2---2-------2---|4|-3-3-3-3/4-4-4-444444|-2-2-2-2-2-2-4-5-|
A |--3---3-------3---|-3---3-----------| |---------------------|-3-3-3-3-3-3-5-6-|
E |------------------|-----------------| |---------------------|-----------------|
  | [acoustic guitar]
E |------------------|-----------------| |---------------------|-----------------|
C |------------------|-----------------| |---------------------|-----------------|
G |------------------|-----------------|4|---------------------|--0-0-0-0-0-0-0-0|
C |------------------|-----------------|4|---------------------|---4---4---4---4-|
G |------------------|-----------------| |---------------------|-----------------|
C |------------------|-----------------| |---------------------|-0---0---0---0---|
  | [bass]
G |------------------|-----------------| |---------------------|-----------------|
D |------------------|-----------------|4|---------------------|-----------------|
A |--3---3-------3---|-3---3-------3---|4|---------------------|-3-3-3-3-3-3-5-6-|
E |------------------|-----------------| |-1-1-1-1-1--1--1--1--|-----------------|
  | [drums]
C |----------X-------|---------X-------| |-X---X---X-----------|-X-x-X-x-X-X-X-x-|
S |----------O-------|---------O-------|4|-----------oooooooooo|-----O-------O---|
FT|--O---O-------O---|-O---O-------O---|4|-----------crescendo-|-----------------|
B |--O---O-------O---|-O---O-------O---| |-o-o-o-o-o-----------|-O-------O-O-----|
  |  1   +   2   +   | 1   +   2   +   | | 1 + 2 + 3 + a 4 + a | 1 + 2 + 3 + 4 + |
   (Virt)uos, Apollo, Paragon, Minerva, Stella (both brief and slow),

  |  C               |                 |                 |                 |
E |--0-0-0-----------|-------------0-0-|-0-0-0-----------|-------------0-0-|
B |--3-1-1-----------|-------------3-4-|-3-1-1-----------|-------------3-4-|
G |--0-0-0-------0---|-0---0-------0-0-|-0-0-0-------0---|-----0-------0-0-|
D |--4-2-2-2-2-2-2-2-|-2-2-2-2-2-2-4-5-|-4-2-2-2-2-2-2-2-|-2-2-2-2-2-2-4-5-|
A |--5-3-3-3-3-3-3-3-|-3-3-3-3-3-3-5-6-|-5-3-3-3-3-3-3-3-|-3-3-3-3-3-3-5-6-|
E |------------------|-----------------|-----------------|-----------------|
  |
E |------------------|-----------------|-----------------|-----------------|
C |------------------|-----------------|-----------------|-----------------|
G |---0-0-0-0-0-0-0-0|--0-0-0-0-0-0-0-0|--0-0-0-0-0-0-0-0|--0-0-0-0-0-0-0-0|
C |----4---4---4---4-|---4---4---4---4-|---4---4---4---4-|---4---4---4---4-|
G |------------------|-----------------|-----------------|-----------------|
C |--0---0---0---0---|-0---0---0---0---|-0---0---0---0---|-0---0---0---0---|
  |
G |------------------|-----------------|-----------------|-----------------|
D |------------------|-----------------|-----------------|-----------------|
A |--5-3-3-3-3-3-3-3-|-3-3-3-3-3-3-5-6-|-5-3-3-3-3-3-3-3-|-3-3-3-3-3-3-5-6-|
E |------------------|-----------------|-----------------|-----------------|
  |
C |--X-X-X-X-X-X-X-X-|-X-X-X-X-X-X-X-X-|-X-X-X-X-X-X-X-X-|-X-X-X-X-X-X-X-X-|
S |------O-------O---|-----O-------O---|-----O-------O---|-----O-------O---|
B |--O-------O-O-----|-O-------O-O-----|-O-------O-O-----|-O-------O-O-----|
  |  1 + 2 + 3 + 4 + | 1 + 2 + 3 + 4 + | 1 + 2 + 3 + 4 + | 1 + 2 + 3 + 4 + |
                                    all clockwork,

  |  C               |                 |                 |                 |
E |--0-0-0-------0---|-0---0-------0-0-|-0-0-0-------0---|-----0-----------|
B |--3-1-1-------1---|-1---1-------3-4-|-3-1-1-------1---|-----1-----------|
G |--0-0-0-------0---|-0---0-------0-0-|-0-0-0-------0---|-----0-----------|
D |--4-2-2-2-2-2-2-2-|-2-2-2-2-2-2-4-5-|-4-2-2-2-2-2-2-2-|-2-2-2-2-2-2-2-2-|
A |--5-3-3-3-3-3-3-3-|-3-3-3-3-3-3-5-6-|-5-3-3-3-3-3-3-3-|-3-3-3-3-3-3-3-3-|
E |------------------|-----------------|-----------------|-----------------|
  |                                              Acoustic guitar - fade out.
E |------------------|-----------------|-----------------|-----------------|
C |------------------|-----------------|-----------------|-----------------|
G |---0-0-0-0-0-0-0-0|--0-0-0-0-0-0-0-0|--0-0-0-0-0-0-0-0|--0-0-0-0-0-0-0-0|
C |----4---4---4---4-|---4---4---4---4-|---4---4---4---4-|---4---4---4---4-|
G |------------------|-----------------|-----------------|-----------------|
C |--0---0---0---0---|-0---0---0---0---|-0---0---0---0---|-0---0---0---0---|
  |
G |------------------|-----------------|-----------------|-----------------|
D |------------------|-----------------|-----------------|-----------------|
A |--5-3-3-3-3-3-3-3-|-3-3-3-3-3-3-5-6-|-5-3-3-3-3-3-3-3-|-3-3-3-3-3-3-3-3-|
E |------------------|-----------------|-----------------|-----------------|
  |
C |--X-X-X-X-X-X-X-X-|-X-X-X-X-X-X-X-X-|-X-X-X-X-X-X-X-X-|-X-X-X-X-X-X-X-X-|
S |------O-------O---|-----O-------O---|-----O-------O---|-----O-------O---|
B |--O-------O-O-----|-O-------O-O-----|-O-------O-O-----|-O-------O-O-----|
  |  1 + 2 + 3 + 4 + | 1 + 2 + 3 + 4 + | 1 + 2 + 3 + 4 + | 1 + 2 + 3 + 4 + |
   all clockwork,                       clockwork.                 O but I

 |  F               | E               | F               | E               |
 | [electric guitar 1]
E|------1-----------|-----0---0---0---|-----------------|-0---------------|
B|------1-----------|-----0---0---0---|-----1-------1-1-|-0---------------|
G|------2-------2---|-----1---1---1---|-----2-------2-2-|-1---------------|
D|------3---3-3-3-3-|-2---2---2-2-2---|-----2---3-3-3-3-|-2---------------|
A|--3---3--33-3-3-3-|-2---2--22-2-2-2-|-3---3---3-3-3-3-|-2---------------|
E|--1---1--11-1-1-1-|-0---0--00-0-0-0-|-1---1---1-1-1-1-|-0---------------|
 | [bass]
G|------------------|-----------------|-----------------|-----------------|
D|------------------|-----------------|-----------------|-----------------|
A|--------------3---|-------1-2-------|-----------------|-----------------|
E|--1-------1-1---1-|-0---------0---0-|-1---------------|-0---------------|
 | [drums]
C|--x---------------|-----------------|-----------------|-----------------|
S|------------------|-----------------|-----------------|-----------------|
B|------------------|-----------------|-----------------|-----------------|
 |  1 + 2 + 3 + 4 + | 1 + 2 + 3 + 4 + | 1 + 2 + 3 + 4 + | 1 + 2 + 3 + 4 + |
  (O but I) didn't write this song with a machine, and I don't know how to stop it from
its accidental purpose.

Any corrections? indierocker93@hotmail.com