Got a better tab than this? Send it to us.

Future Seal
guitar tab
Written by Glenn Richards
Tabbed by Bill Gates (strat11@hotmail.com)

standard tuning (but it probably isnt, seeing as they use enough alternative tunings to make sonic youth look like amateurs)
..well, maybe not THAT many

im too lazy to work out the start bit properly, but the first two chords are

E--0----0----
b--8----7b---
g--0----0----
d--9----9----
a------------
e------------

intro bit before the singing

all down strokes, hit lightly on lower case d, hit hard on big D

   d d D   d d D   d d D   d d D
E----------------------------------
b--8-8-8---8-8-8---8-8-8---8-8-8---
g--0-0-0---0-0-0---0-0-0---0-0-0---
d--9-9-9---9-9-9---9-9-9---9-9-9---
a--9-9-9---9-9-9---7-7-7---7-7-7---
e----------------------------------

buildup before singing (4 bars only)
crescendo with strumming

E-----------------------------------------------------------------
b-----------------------------------------------------------------
g--0-0-0-0-0-0-0-0-0-0-0-0-0-0-0-0-0-0-0-0-0-0-0-0-0-0-0-0-0-0-0--
d--9-9-9-9-9-9-9-9-9-9-9-9-9-9-9-9-9-9-9-9-9-9-9-9-9-9-9-9-9-9-9--
a--0-0-0-0-0-0-0-0-0-0-0-0-0-0-0-0-----------------------------7--
e----------------------------------7-7-7-7-7-7-7-7-9-9-9-9-9-9----

verse (father duck...)

   d d D   d d D   d d D   d d D
E--0-0-0---0-0-0---0-0-0---0-0-0--
b--0-0-0---0-0-0---0-0-0---0-0-0--
g--8-8-8---8-8-8---8-8-8---8-8-8--
d--9-9-9---9-9-9---9-9-9---9-9-9--
a--9-9-9---9-9-9---7-7-7---7-7-7--
e---------------------------------

play this riff twice, then play this

E-7-7-7-7-7-7-7-7-7-7-7-7-7-7-7-7-0-0-0-0-0-0-0-0-0-0-0-0-0-0-0-0--
b-0-0-0-0-0-0-0-0-0-0-0-0-0-0-0-0-7-7-0-0-7-7-0-0-7-7-0-0-7-7-0-0--
g-8-8-8-8-8-8-8-8-8-8-8-8-8-8-8-8-8-8-8-8-8-8-8-8-8-8-8-8-8-8-8-8--
d-9-9-9-9-9-9-9-9-9-9-9-9-9-9-9-9-9-9-9-9-9-9-9-9-9-9-9-9-9-9-9-9--
a-0-0-0-0-0-0-0-0-0-0-0-0-0-0-0-0-0-0-0-0-0-0-0-0-0-0-0-0-0-0-0-0--
e------------------------------------------------------------------

chorus (pop another cherry, meet the flag of your future...)

   d d D d d d D d d d D d d d D d d d D d d d D d d d D d d d D d
E--0-0-0-0-0-0-0-0-0-0-0-0-0-0-0-0-0-0-0-0-0-0-0-0-0-0-0-0-0-0-0-0--
b--0-0-0-0-0-0-0-0-0-0-0-0-0-0-0-0-0-0-0-0-0-0-0-0-0-0-0-0-0-0-0-0--
g--8-8-8-8-8-8-8-8-8-8-8-8-8-8-8-8-8-8-8-8-8-8-8-8-8-8-8-8-8-8-8-8--
d--9-9-9-9-9-9-9-9-9-9-9-9-9-9-9-9-9-9-9-9-9-9-9-9-9-9-9-9-9-9-9-9--
a----------------------------------0-0-0-0-0-0-0-0-0-0-0-0-0-0-0-0--
e--9-9-9-9-9-9-9-9-7-7-7-7-7-7-7-7----------------------------------

and there you have it.

sorry if its all a bit hard to read.