Have you tabbed this for another instrument? Send it to us.

Here Comes the Night
Written by Glenn Richards

JB's boobtube

guitar tab
Tabbed by Tim Byron

The chords used in the song:
   eadgbe		   eadgbe
C  x32010		Am x02210
F  133211		G  320033, 355433
Cm x35543		Gm 355333

  1C     C/D   C/E   C/F    2G     G/F   G/E   G/D    3F     G     F     F/D    4F     F/E   F/D   F/E
e|-------------------------|-------------------------|-------------------------|-------------------------|
B|---1-----1-----1-----1---|---0-----0-----0-----0---|---1-----3-----1-----1---|---1-----1-----1-----1---|
G|-----0-----0-----0-----0-|-----0-----0-----0-----0-|-----2-----4-----2-----2-|-----0-----0-----0-----0-|
D|-------0-----2-----3-----|-5-----3-----2-----0-----|-3-----5-----3-----0-----|-3-----2-----0-----2-----|
A|-3-----------------------|-------------------------|-------------------------|-------------------------|
E|-------------------------|-------------------------|-------------------------|-------------------------|
  
  5C     C/D   C/E   C/F    6G     G/A   G/B   G/C    7F     G     F     Dm7    8F     F/E   F/D   F/E
e|-------------------------|-------------------------|-------------------------|-------------------------|
B|---1-----1-----1-----1---|---0-----0-----0-----0---|---1-----3-----1-----1---|---1-----1-----1-----1---|
G|-----0-----0-----0-----0-|-----0-----0-----0-----0-|-----2-----4-----2-----2-|-----0-----0-----0-----0-|
D|-------0-----2-----3-----|-5-----7-----9-----10----|-3-----5-----3-----0-----|-3-----2-----0-----2-----|
A|-3-----------------------|-------------------------|-------------------------|-------------------------|
E|-------------------------|-------------------------|-------------------------|-------------------------|

  9C(2)        Am(2)       10Em7(4)                  11C(2)        Am(2)       12Em(2)       F     G 
    Here comes the    night                          Roll on, you careless evening 

 13C(2)        Am(2)       14Em7(4)                  15C(2)        Am(2)       16Em(2)       F     G
    When we unite                                    Not a voice concurs not hell, nor heaven so let it

 17Am (2)      C(2)        18F(2)        G(2)        19Am(2)       C(2)        20F(2)        G(2)
   come, let it rain, let it burn through you and me again in the    slums without a name and it isn't only poverty to

 21C     C/D   C/E   C/F   22G     G/A   G/B   G/C   23F     G     F     Dm7   24F     F/E   F/D   F/E
e|-------------------------|-------------------------|-------------------------|-------------------------|
B|---1-----1-----1-----1---|---0-----0-----0-----0---|---1-----3-----1-----1---|---1-----1-----1-----1---|
G|-----0-----0-----0-----0-|-----0-----0-----0-----0-|-----2-----4-----2-----2-|-----0-----0-----0-----0-|
D|-------0-----2-----3-----|-5-----7-----9-----10----|-3-----5-----3-----0-----|-3-----2-----0-----2-----|
A|-3-----------------------|-------------------------|-------------------------|-------------------------|
E|-------------------------|-------------------------|-------------------------|-------------------------|
  blame.

Repeat 9-20
 
  45C     C/D   C/E   C/F   46G     G/F   G/E   G/D   47F     G     F     Dm7   F     F/E   F/D   F/E
e|:-------------------------|-------------------------|-------------------------|-------------------------:|
B|:---1-----1-----1-----1---|---0-----0-----0-----0---|---1-----3-----1-----1---|---1-----1-----1-----1---:|
G|:-----0-----0-----0-----0-|-----0-----0-----0-----0-|-----2-----4-----2-----2-|-----0-----0-----0-----0-:|
D|:-------0-----2-----3-----|-5-----3-----2-----0-----|-3-----5-----3-----0-----|-3-----2-----0-----2-----:|
A|:-3-----------------------|-------------------------|-------------------------|-------------------------:|
E|;-------------------------|-------------------------|-------------------------|-------------------------:|
   Oh,   how  sweet, how   in-   comp- lete  you     Are,                    In    your  eyes, a
   smile so    sweet, a    sil-  ly    sol-  dierís     scar,                   splits your face  from
    
 53Am          C           54F           G           55Am          C           56F           G
  Ear to ear you pretend that you simply cannot hear      the bells and the bombs going off in the galle-

 57C           Am          58Em          F     G     59C           Am          60Em          F     G
 -ry  Here comes the night, the ni-     ight  Roll on, you careless evening 

 61C           Am          62Em          F     G     63C           Am          64Em          F     G
   When we unite    Not a voice concurs not hell nor heaven so let it 

 65Am          C           66F           G           67Am           C          68F           G
  come, let it rain let it burn through you and me again In the slums without a name and it isn't only poverty to 

  69C     C/D   C/E   C/F   70G     G/F   G/E   G/D   71F     G     F     Dm7   72F     F/E   F/D   F/E
e|:-0-----0-----0-----0-----|-3-----3-----3-----3-----|-1-----3-----1-----1-----|-1-----1-----1-----1-----:|
B|:-1-----1-----1-----1-----|-0-----0-----0-----0-----|-1-----3-----1-----1-----|-1-----1-----1-----1-----:|
G|:-0-----0-----0-----0-----|-0-----0-----0-----0-----|-2-----4-----2-----2-----|-2-----2-----2-----2-----:|
D|:-2-----0-----2-----3-----|-5-----3-----2-----0-----|-3-----5-----3-----0-----|-3-----2-----0-----2-----:|
A|:-3-----3-----3-----3-----|-------------------------|-------------------------|-------------------------:|
E|:-------------------------|-------------------------|-------------------------|-------------------------:|
   blame, my  sweet, how   in-   comp- lete  we  are,                    In    their eyes, am
   I     from  dust  you   from  my    bones im-   parted,            and if that don't make you

  77C     G     C     G     78C     G     C     G     79Cm    Gm    Cm    Gm    80Am    D      G(4)  (81=half bar)
   Laugh at nature's rough replacement                                  Too late in all 

  82C           Am          83Em          F     G     84C           Am          85Em          F     G
  all.  Here comes the night                             Here comes the night, 

  86C           Am          87Em          F     G     88C           Am          89Em          F     G     90C
  Roll on, good night                                 Here comes the night    , the night will roll       on.