Got a better tab than this, or for a different instrument? Send it to us.

Heartbeat and Sails
Written by Glenn Richards

JB's boobtube

guitar chords by JB

capo - 2nd fret
e|-0---0---0---0---0---0---0---0---2---4---0---0---2---4---0---0---0-
B|-2---0---0---2---0---0---2---3---0---0---2---3---0---0---0---0---2-
G|-2---6---7---2---6---7---2---1---2---4---2---2---2---4---6---7---2-
D|-2---0---0---2---0---0---2---2---0---0---2---0---0---0---0---0---2-
A|-0---X---7---0---X---7---0---X---0---0---0---0---0---0---X---7---0-
D|-2---4---6---2---4---6---2---2---0---0---2---0---0---0---4---6---2-

guitar tab y Tim Byron

   Badd4                   E/Ab Emajb5/Bb
e||-----0-----0-----0-----0-|-----0-----0-|
B||---4-----4-----4-----4---|---0-----0---|
G||-4-----4-----4-----4-----|-1-----3-----|
D||-------------------------|-------------|
A||-------------------------|-------------|
E||-------------------------|-------------|

   Badd4                   E/Ab   Emajb5/Bb  Badd4
e|:-----0-----0-----0-----0-|-----0-----0-----0-----0-|
B|:---4-----4-----4-----4---|---0-----0-----4-----4---|
G|:-4-----4-----4-----4-----|-1-----3-----4-----4-----|
D|:-------------------------|-------------------------|
A|:-------------------------|-------------------------|
E|:-------------------------|-------------------------|
V1: Scoop   my brains         thousand million lots, in the
V2: Scoop   my brains         thousand million lots

  Badd4                     E/Ab          Emajb5/Bb   Badd4        F#7
e|-----0-----0-----0-----0-|-----0-----0-----0-----0-|-----0-----0-----0-----0-|
B|---4-----4-----4-----4---|---0-----0-----0-----0---|---4-----4-----2-----2---|
G|-4-----4-----4-----4-----|-1-----1-----3-----3-----|-4-----4-----------------|
D|-------------------------|-------------------------|-------------4-----4-----|
A|-------------------------|-------------------------|-------------------------|
E|-------------------------|-------------------------|-------------------------|
V1: dumb city  dawn         sun as the blackbirds     knots
V2: Feel the subterranean movement Deep under ocean the celibate rocks.

  Abm7          Emajb5/Bb    Badd4       Emaj7/Ab     Abm7         Emajb5/Bb
e|-----2-----2-----0-----0-|-----0-----0-----0-----0-|-----2-----2-----0-----0-|
B|---0-----0-----0-----0---|---4-----4-----4-----4---|---0-----0-----0-----0---|
G|-1-----1-----3-----3-----|-4-----4-----------------|-1-----1-----3-----3-----|
D|-------------------------|-------------6-----6-----|-------------------------|
A|-------------------------|-------------------------|-------------------------|
E|-------------------------|-------------------------|-------------------------|
V1: In biting down on the      what is the looming thing? Not money or flesh or happiness
V2: has it borne me down  I give it a name do I       likely this thing has been growing

  E/Ab         Emajb5/Bb    Badd4        F#7
e|-----0-----0-----0-----0-|-----0-----0-----0---0---:|
B|---0-----0-----0-----0---|---4-----4-----7-------4-:|
G|-1-----1-----3-----3-----|-4-----4-----------------:|
D|-------------------------|-------------4-----4-----:|
A|-------------------------|-------------------------:|
E|-------------------------|-------------------------:|
V1: but this which makes me   sing
V2: like I have grown in you