Have you tabbed this for a different instrument? Send it to us.

The Hole in Your Roof
Written by Glenn Richards

JB's boobtube

guitar tab by JB and Sam Hardwick

  | F#maj7                       F#
  | Free time
  | [rhythm guitar - Glenn Richards]
C#|--0---------------------------------------------------------------
A#|--0------7b8r7----------------0--0--0--0--0--0--0--0--0--0--0--0--
F |--0---------------------3--4--5--5--5--5--5--5--5--5--5--5--5--5--
C#|--0---------------------3--4--5--5--5--5--5--5--5--5--5--5--5--5--
F#|--0---------------------0--0--0--0--0--0--0--0--0--0--0--0--0--0--
C#|------------------------------------------------------------------
    pp

C#|-----------------------------------------
A#|--0--0--0--0--0--0--0--0--7b8r7-0--0--0--
F |--3--4--5--5--5--5--5--5--5--5--5--5--5--
C#|--3--4--5--5--5--5--5--5--5--5--5--5--5--
F#|--0--0--0--0--0--0--0--0--0--0--0--0--0--
C#|-----------------------------------------

     |  F#                F#sus2            | F#sus4            F#sus2            |
C#|  |--------------------------------------|-------------------------------------|
A#|  |-----------7b8r7-7--1--1--1--3--3--3--|-------------------------------------|
F |12|--5--5--5--5--5--5--3--3--3--5--5--5--|-6--6--6--6--6--6--3--3--3--3--3--3--|
C#|8 |--0--0--0--0--0--0--0--0--0--0--0--0--|-0--0--0--0--0--0--0--0--0--0--0--0--|
F#|  |--0--0--0--0--0--0--0--0--0--0--0--0--|-0--0--0--0--0--0--0--0--0--0--0--0--|
C#|  |--------------------------------------|-------------------------------------|
      What do the men say to the             women when they lay down at night, all

  |  F#6      F#maj7   F#sus2   F#       | Bsus2b5                             |
C#|--------------------------------------|-------------------------------------|
A#|--------------------------------------|-------------------------------------|
F |--0--0--0--0--0--0--3--3--3--5--5--5--|-0--0--0--0--0--0--0--0--0--0--0--0--|
C#|--2--2--2--4--4--4--0--0--0--0--0--0--|-0--0--0--0--0--0--0--0--0--0--0--0--|
F#|--0--0--0--0--0--0--0--0--0--0--0--0--|-5--5--5--5--5--5--5--5--5--5--5--5--|
C#|--------------------------------------|-------------------------------------|
   naked of arms from the old imagined    fight?

  |  F#                F#sus2            | F#sus4            F#sus2            |
C#|--------------------------------------|-------------------------------------|
A#|-----------7b8r7-7--------------------|-------------------------------------|
F |--5--5--5--5--5--5--3--3--3--3--3--3--|-6--6--6--6--6--6--3--3--3--3--3--3--|
C#|--0--0--0--0--0--0--0--0--0--0--0--0--|-0--0--0--0--0--0--0--0--0--0--0--0--|
F#|--0--0--0--0--0--0--0--0--0--0--0--0--|-0--0--0--0--0--0--0--0--0--0--0--0--|
C#|--------------------------------------|-------------------------------------|
   And how do the women hear? In          kind and in likeness of light - "In

  |  F#6      F#maj7   F#sus2   F#       | Bmaj7sus2         Bsus2             |
C#|--------------------------------------|-------------------------------------|
A#|--------------------------------------|-------------------------------------|
F |--0--0--0--0--0--0--3--3--3--5--5--5--|-5--5--5--5--5--5--6--6--6--6--6--6--|
C#|--2--2--2--4--4--4--0--0--0--0--0--0--|-0--0--0--0--0--0--0--0--0--0--0--0--|
F#|--0--0--0--0--0--0--0--0--0--0--0--0--|-5--5--5--5--5--5--5--5--5--5--5--5--|
C#|--------------------------------------|-------------------------------------|
   kindness you needn't and neither do I, we are both of us capable of flight," and

  |  F#maj7                               | Bsus2b5  C#       D#m7sus2 |
C#|-------------------------------------| |----------------------------|
A#|-------------------------------------| |-5-----5--7--7--7--8--8--8--|
F |--0--0--0--0--0--0--0--0--0--0--0--0-|9|-0--0--0--0--0--0--0--0--0--|
C#|--0--0--0--0--0--0--0--0--0--0--0--0-|8|-0--0--0--0--0--0--0--0--0--|
F#|--0--0--0--0--0--0--0--0--0--0--0--0-| |-5--5--5--7--7--7--9--9--9--|
C#|-------------------------------------| |----------------------------|
                                            p
   as if to give proof, she jumped through the hole in the roof.

     |  F#maj7                             |                                    |
C#|  |-------------------------------------|------------------------------------|
Bb|  |-----------8-----------------8-------|------------------------------------|
F |12|--0--0--0--0--0--0--0--0--0--0--0--0-|-0--0--0--0--0--0--0--0--0--0--0--0-|
C#|8 |--0--0--0--0--0--0--0--0--0--0--0--0-|-0--0--0--0--0--0--0--0--0--0--0--0-|
F#|  |--0--0--0--0--0--0--0--0--0--0--0--0-|-0--0--0--0--0--0--0--0--0--0--0--0-|
C#|  |-------------------------------------|------------------------------------|
                                                  p<<<<<<<<<<<<<<<<<<<<<<<<<<<<<

  |  F#                F#sus2            | F#sus4            F#sus2            |
  | Drums in                            
C#|--------------------------------------|-------------------------------------|
A#|-----------0-----------------0--------|----------0-----------------0--------|
F |--5--5--5--5--5--5--3--3--3--3--3--3--|-6--6--6--6--6--6--3--3--3--3--3--3--|
C#|--0--0--0--0--0--0--0--0--0--0--0--0--|-0--0--0--0--0--0--0--0--0--0--0--0--|
F#|--0--0--0--0--0--0--0--0--0--0--0--0--|-0--0--0--0--0--0--0--0--0--0--0--0--|
C#|--------------------------------------|-------------------------------------|
    mp   
   What did the condemned say to the       blessed when they met on the path?

  |  F#6      F#maj7   F#sus2   F#       | Bmaj7sus2b5                         |
C#|--------------------------------------|-------------------------------------|
A#|--------------------0--0--0--0--0--0--|----------0-----------------0--------|
F |--0--0--0--0--0--0--3--3--3--5--5--5--|-0--0--0--0--0--0--0--0--0--0--0--0--|
C#|--2--2--2--4--4--4--0--0--0--0--0--0--|-0--0--0--0--0--0--0--0--0--0--0--0--|
F#|--0--0--0--0--0--0--0--0--0--0--0--0--|-5--5--5--5--5--5--5--5--5--5--5--5--|
C#|--------------------------------------|-------------------------------------|
   "O you take the low road and I'll take the high for a laugh," but if

  |  F#6      F#maj7   F#sus2   F#       | Bmaj7sus2                           |
C#|--------------------------------------|-------------------------------------|
A#|--------------------1--1--1--3--3--3--|-0--0--0--0--0--0--0--0--0--0--0--0--|
F |--0--0--0--0--0--0--3--3--3--5--5--5--|-5--5--5--5--5--5--6--6--6--6--6--6--|
C#|--2--2--2--4--4--4--0--0--0--0--0--0--|-0--0--0--0--0--0--0--0--0--0--0--0--|
F#|--0--0--0--0--0--0--0--0--0--0--0--0--|-5--5--5--5--5--5--5--5--5--5--5--5--|
C#|--------------------------------------|-------------------------------------|
   I'm laughing now it's because I've a gentle heart,

  |  F#maj7                                | Bsus2b5  C#       D#m7sus2 |
C#|--------------------------------------| |----------------------------|
A#|-----------0--------0--------0--0--0--| |-5-----5-----7--7-----8--8--|
F |--0--0--0--0--0--0--0--0--0--0--0--0--|9|-0--0--0--0--0--0--0--0--0--|
C#|--0--0--0--0--0--0--0--0--0--0--0--0--|8|-0--0--0--0--0--0--0--0--0--|
F#|--0--0--0--0--0--0--0--0--0--0--0--0--| |-5--5--5--7--7--7--9--9--9--|
C#|--------------------------------------| |----------------------------|
   and because it was true he slipped through the hole in the roof

     |  F#maj7                             |   B/F#     A/F#     Fm/F#    F#         |
     |                                                                Play 3 times
C#|  |-------------------------------------| |-------------------------------------| |
Bb|  |-----------8-----------------8-------| |-5--5--5--7--7--7-----10-10-12-12-12-| |
F |12|--0--0--0--0--0--0--0--0--0--0--0--0-|o|-6--6--6--8--8--8-----12-12-13-13-13-|o|
C#|8 |--0--0--0--0--0--0--0--0--0--0--0--0-|o|-0--0--0--0--0--0--0--0--0--0--0--0--|o|
F#|  |--0--0--0--0--0--0--0--0--0--0--0--0-| |-0--0--0--0--0--0--0--0--0--0--0--0--| |
C#|  |-------------------------------------| |-------------------------------------| |
                                               f

  |  F#/B                                | F#                                  |
C#|--------------------------------------|-------------------------------------|
Bb|--12-12-12-12-12-12-12-12-12-12-12-12-|-12-12-12-12-12-12-12-12-12-12-12-12-|
F |--13-13-13-13-13-13-13-13-13-13-13-13-|-13-13-13-13-13-13-13-13-13-13-13-13-|
C#|--0--0--0--0--0--0--0--0--0--0--0--0--|-0--0--0--0--0--0--0--0--0--0--0--0--|
F#|--------------------------------------|-0--0--0--0--0--0--0--0--0--0--0--0--|
C#|--10-10-10-10-10-10-10-10-10-10-10-10-|-------------------------------------|

  |    F#                                    |  F#       F#sus2   F#maj7
C#| |--------------------------------------| |--------------------------------------|
Bb| |--0--0--0--0--0--0--0--0--0--0--0--0--| |--0--0--0--0--0--0--0--0--0--0--0--0--|
F |o|--10-8--6--5--3--1h00--0--0--0--0--0--|o|--5--5--5--3--3--1--0--0--0--0--0--0--|
C#|o|--0--0--0--0--0--0--0--3--4--5--5--5--|o|--0--0--0--0--0--0--0--0--0--0--0--0--|
F#| |--0--0--0--0--0--0--0--3--4--5--5--5--| |--0--0--0--0--0--0--0--0--0--0--0--0--|
C#| |--------------------------------------| |--------------------------------------|
                                              La la la la la

  |  F#             Bmaj7sus2b5          |  F#       F#sus2   F#maj7
C#|--------------------------------------|--------------------------------------|
Bb|--0--0--0--0--0--0--0--0--0--0--0--0--|--0--0--0--0--0--0--0--0--0--0--0--0--|
F |--5--5--5--3--1--0--0--0--0--0--0--0--|--5--5--5--3--3--1--0--0--0--0--0--0--|
C#|--0--0--0--0--0--0--0--0--0--0--0--0--|--0--0--0--0--0--0--0--0--0--0--0--0--|
F#|--0--0--0--0--0--5--5--5--5--5--5--5--|--0--0--0--0--0--0--0--0--0--0--0--0--|
C#|--------------------------------------|--------------------------------------|
     mf
   La la la la la...                  from above your head everything can be read that you're

  |  Bmaj7sus2                           |  F#6      F#maj7   F#sus2   F#       |
C#|--------------------------------------|--------------------------------------|
Bb|--0--0--0--0--0--0--0--0--0--0--0--0--|--0--0--0--0--0--0--1--1--1--3--3--3--|
F |--5--5--5--5--5--5--6--6--6--6--6--6--|--0--0--0--0--0--0--3--3--3--5--5--5--|
C#|--0--0--0--0--0--0--0--0--0--0--0--0--|--2--2--2--4--4--4--0--0--0--0--0--0--|
F#|--5--5--5--5--5--5--5--5--5--5--5--5--|--0--0--0--0--0--0--0--0--0--0--0--0--|
C#|--------------------------------------|--------------------------------------|
   thinking -                      what the secretaries sing and the CEOs bark in the bars

  |  F#maj7            F#sus2            | F#sus4            F#sus2            |
C#|--------------------------------------|-------------------------------------|
A#|--0--0--0--0--0--0--0--0--0--0--0--0--|-0--0--0--0--0--0--0--0--0--0--0--0--|
F |--5--5--5--5--5--5--3--3--3--3--3--3--|-6--6--6--6--6--6--3--3--3--3--3--3--|
C#|--0--0--0--0--0--0--0--0--0--0--0--0--|-0--0--0--0--0--0--0--0--0--0--0--0--|
F#|--0--0--0--0--0--0--0--0--0--0--0--0--|-0--0--0--0--0--0--0--0--0--0--0--0--|
C#|--------------------------------------|-------------------------------------|
   What do the dead say             to the ones that still think they're alive?

  |  F#6      F#maj7   F#sus2   F#       | Bmaj7sus2b5                         |
C#|--------------------------------------|-------------------------------------|
A#|--0--0--0--0--0--0--1--1--1--3--3--3--|-0--0--0--0--0--0--0--0--0--0--0--0--|
F |--0--0--0--0--0--0--3--3--3--5--5--5--|-0--0--0--0--0--0--0--0--0--0--0--0--|
C#|--2--2--2--4--4--4--0--0--0--0--0--0--|-0--0--0--0--0--0--0--0--0--0--0--0--|
F#|--0--0--0--0--0--0--0--0--0--0--0--0--|-5--5--5--5--5--5--5--5--5--5--5--5--|
C#|--------------------------------------|-------------------------------------|
   "Your heads are on backwards, you can't see the front for what near behind you lies."

  |  F#maj7            F#sus2            | F#sus4            F#sus2            |
C#|--------------------------------------|-------------------------------------|
A#|--0--0--0--0--0--0--0--0--0--0--0--0--|-0--0--0--0--0--0--0--0--0--0--0--0--|
F |--5--5--5--5--5--5--3--3--3--3--3--3--|-6--6--6--6--6--6--3--3--3--3--3--3--|
C#|--0--0--0--0--0--0--0--0--0--0--0--0--|-0--0--0--0--0--0--0--0--0--0--0--0--|
F#|--0--0--0--0--0--0--0--0--0--0--0--0--|-0--0--0--0--0--0--0--0--0--0--0--0--|
C#|--------------------------------------|-------------------------------------|
   Well show us some help then, 'bove your head let it flicker the light

  |  F#6      F#maj7   F#sus2   F#       | Bmaj7sus2                           |
C#|--------------------------------------|-------------------------------------|
A#|--0--0--0--0--0--0--1--1--1--3--3--3--|-0--0--0--0--0--0--0--0--0--0--0--0--|
F |--0--0--0--0--0--0--3--3--3--5--5--5--|-5--5--5--5--5--5--6--6--6--6--6--6--|
C#|--2--2--2--4--4--4--0--0--0--0--0--0--|-0--0--0--0--0--0--0--0--0--0--0--0--|
F#|--0--0--0--0--0--0--0--0--0--0--0--0--|-5--5--5--5--5--5--5--5--5--5--5--5--|
C#|--------------------------------------|-------------------------------------|
   These ones that I'm with have not learned to forgive your necessary alibis - when they

  | B/F#     A/F#     Fm/F#    F#       | B/F#     A/F#     Fm/F#    F#       |
C#|-------------------------------------|-------------------------------------|
Bb|-5--5--5--7--7--7-----10-10-12-12-12-|-5--5--5--7--7--7-----10-10-12-12-12-|
F |-6--6--6--8--8--8-----12-12-13-13-13-|-6--6--6--8--8--8-----12-12-13-13-13-|
C#|-0--0--0--0--0--0--0--0--0--0--0--0--|-0--0--0--0--0--0--0--0--0--0--0--0--|
F#|-0--0--0--0--0--0--0--0--0--0--0--0--|-0--0--0--0--0--0--0--0--0--0--0--0--|
C#|-------------------------------------|-------------------------------------|
    f
   made you love money            and the poor prophet's stock, when they

  | B/F#     A/F#     Fm/F#    F#       | F#/B                                |
C#|-------------------------------------|-------------------------------------|
Bb|-5--5--5--7--7--7-----10-10-12-12-12-|-12-12-12-12-12-12-12-12-12-12-12-12-|
F |-6--6--6--8--8--8-----12-12-13-13-13-|-13-13-13-13-13-13-13-13-13-13-13-13-|
C#|-0--0--0--0--0--0--0--0--0--0--0--0--|-0--0--0--0--0--0--0--0--0--0--0--0--|
F#|-0--0--0--0--0--0--0--0--0--0--0--0--|-------------------------------------|
C#|-------------------------------------|-10-10-10-10-10-10-10-10-10-10-10-10-|
   poisoned the watersheds and fashioned our arrowheads from the deep forbidden rock

  | B/F#     A/F#     Fm/F#    F#       | B/F#     A/F#     Fm/F#    F#       |
C#|-------------------------------------|-------------------------------------|
Bb|-5--5--5--7--7--7-----10-10-12-12-12-|-5--5--5--7--7--7-----10-10-12-12-12-|
F |-6--6--6--8--8--8-----12-12-13-13-13-|-6--6--6--8--8--8-----12-12-13-13-13-|
C#|-0--0--0--0--0--0--0--0--0--0--0--0--|-0--0--0--0--0--0--0--0--0--0--0--0--|
F#|-0--0--0--0--0--0--0--0--0--0--0--0--|-0--0--0--0--0--0--0--0--0--0--0--0--|
C#|-------------------------------------|-------------------------------------|
    f
   made you love money            and the poor prophet's stock, when they

  | B/F#     A/F#     Fm/F#    F#       | B/F#     A/F#     Fm/F#    F#       |
C#|-------------------------------------|-------------------------------------|
Bb|-5--5--5--7--7--7-----10-10-12-12-12-|-5--5--5--7--7--7-----10-10-12-12-12-|
F |-6--6--6--8--8--8-----12-12-13-13-13-|-6--6--6--8--8--8-----12-12-13-13-13-|
C#|-0--0--0--0--0--0--0--0--0--0--0--0--|-0--0--0--0--0--0--0--0--0--0--0--0--|
F#|-0--0--0--0--0--0--0--0--0--0--0--0--|-0--0--0--0--0--0--0--0--0--0--0--0--|
C#|-------------------------------------|-------------------------------------| 
   O but did you see what people do, and when you saw it you did it too? Now

  | B/F#     A/F#     Fm/F#    F#       | F#/B                                |
C#|-------------------------------------|-------------------------------------|
Bb|-5--5--5--7--7--7-----10-10-12-12-12-|-12-12-12-12-12-12-12-12-12-12-12-12-|
F |-6--6--6--8--8--8-----12-12-13-13-13-|-13-13-13-13-13-13-13-13-13-13-13-13-|
C#|-0--0--0--0--0--0--0--0--0--0--0--0--|-0--0--0--0--0--0--0--0--0--0--0--0--|
F#|-0--0--0--0--0--0--0--0--0--0--0--0--|-------------------------------------|
C#|-------------------------------------|-10-10-10-10-10-10-10-10-10-10-10-10-| 
    all your children are twice the size of you and they come in at night through the

  | Bsus2b5  C#       D#m7sus2 F#maj7   | Bsus2b5  C#       D#m7sus2 F#maj7   |
C#|-0--0--0--0--0--0--0--0--0--0--0--0--|-0--0--0--0--0--0--0--0--0--0--0--0--|
A#|-5--5--5--7--7--7--8--8--8--8--8--8--|-5--5--5--7--7--7--8--8--8--8--8--8--|
F |-0--0--0--0--0--0--0--0--0--0--0--0--|-0--0--0--0--0--0--0--0--0--0--0--0--|
C#|-0--0--0--0--0--0--0--0--0--0--0--0--|-0--0--0--0--0--0--0--0--0--0--0--0--|
F#|-5--5--5--7--7--7--9--9--9--0--0--0--|-5--5--5--7--7--7--9--9--9--0--0--0--|
C#|-------------------------------------|-------------------------------------|
   the hole in your roof              the hole in your roof

  | Bsus2b5  C#       D#m7sus2 F#maj7   | Bsus2b5  C#       D#m7sus2 F#maj7   |
C#|-0--0--0--0--0--0--0--0--0--0--0--0--|-0--0--0--0--0--0--0--0--0--0--0--0--|
A#|-5--5--5--7--7--7--8--8--8--8--8--8--|-5--5--5--7--7--7--8--8--8--8--8--8--|
F |-0--0--0--0--0--0--0--0--0--0--0--0--|-0--0--0--0--0--0--0--0--0--0--0--0--|
C#|-0--0--0--0--0--0--0--0--0--0--0--0--|-0--0--0--0--0--0--0--0--0--0--0--0--|
F#|-5--5--5--7--7--7--9--9--9--0--0--0--|-5--5--5--7--7--7--9--9--9--0--0--0--|
C#|-------------------------------------|-------------------------------------|
   the hole in your roof              the hole in your roof

  | Bsus2b5  C#       D#m7sus2 F#maj7   | Bsus2b5           C#                |
C#|-0--0--0--0--0--0--0--0--0--0--0--0--|-0--0--0--0--0--0--0--0--0--0--0--0--|
A#|-5--5--5--7--7--7--8--8--8--8--8--8--|-5--5--5--5--5--5--7--7--7--7--7--7--|
F |-0--0--0--0--0--0--0--0--0--0--0--0--|-0--0--0--0--0--0--0--0--0--0--0--0--|
C#|-0--0--0--0--0--0--0--0--0--0--0--0--|-0--0--0--0--0--0--0--0--0--0--0--0--|
F#|-5--5--5--7--7--7--9--9--9--0--0--0--|-5--5--5--5--5--5--7--7--7--7--7--7--|
C#|-------------------------------------|-------------------------------------|
   the hole in your roof              the hole              in

  | D#m7sus2                            | F#maj7
  |                                       Free time, begin fade out                             
C#|-0--0--0--0--0--0--0--0--0--0--0--0--|-------------------------------------
A#|-8--8--8--8--8--8--8--8--8--8--8--8--|-0--0--0--0--0--0--0--0--0--0--0--0--
F |-0--0--0--0--0--0--0--0--0--0--0--0--|-0--0--0--0--0--0--0--0--0--0--0--0--
C#|-0--0--0--0--0--0--0--0--0--0--0--0--|-0--0--0--0--0--0--0--0--0--0--0--0--
F#|-9--9--9--9--9--9--9--9--9--9--9--9--|-0--0--0--0--0--0--0--0--0--0--0--0--
C#|-------------------------------------|-------------------------------------
                                          pp
   yooooooooooooooooooouuuuuuuuuuuuuuuur roof

  | F#maj7                             
C#|-------------------------------------||
A#|-0--0--0--7b8r7-0--0--0--0--0--0--0--||
F |-0--0--0--0--0--0--0--0--0--0--0--0--||
C#|-0--0--0--0--0--0--0--0--0--0--0--0--||
F#|-0--0--0--0--0--0--0--0--0--0--0--0--||
C#|-------------------------------------||