Anyone got a bass tab? Send it to us.

Little Wonder
Written by Glenn Richards

guitar tab by by Glen Maddern (just the guitar tab)
piano tab by Rebecca Barton (just the piano tab)
drum tab by Sarah Fernandez (just the drum tab)
JB's boobtube

4/4, in F major (Bb key signature even though it's not on the staff)
Most of the trumpet is included in the piano part.

VERSE 1
      
Well it's my

e|-------------------------|-------------------------|-------------------------|-------------------------|
C|-------0-----------0-----|-------0-----------0-----|-------2-----------2-----|-------2-----------0-----|
G|----2-----2-----2-----2--|----2-----2-----2-----0--|----3-----3-----2-----2--|----0-----0-----0-----0--|
D|-3-----------2-----------|-1-----------0-----------|-0-----------0-----------|-0-----------0-----------|
A|-------------------------|-------------------------|-------------------------|-------------------------|
E|-------------------------|-------------------------|-------------------------|-------------------------|

S|-o-----o-----0-----o-----|-o-----o-----0-----o-----|-o-----o-----0-----o-----|-o-----o-----0-----o-----|
B|-0-----------------------|-0-----------------------|-0-----------------------|-0-----------------------|
   1  +  2  +  3  +  4  +  | 1  +  2  +  3  +  4  +  | 1  +  2  +  3  +  4  +  | 1  +  2  +  3  +  4  +  |
   very little wonder and it's one that I will keep, But you can take it with you if it helps you when you're trying to


8va------------------------------------------------------------------------------------------------------|

F|-O-----------------------|-------------------------|-------------------------|-------------------------|
 |             O           |                         | O                       |                         |
D|-O-----------------------|-------------------------|-------------O-----------|-------------------------|
 |             O           |                         |                         | O                       |
B|-------------------------|-O-----------------------|-------------------------|-------------------------|
 |                         |                         |                         |                         |
G|-------------------------|-O-----------------------|-------------------------|-O-----------------------|
 |                         |                         |                         |                         |
E|-------------------------|-------------------------|-------------------------|-------------------------|


e|-------1-----------1-----|-------0-----------0-----|-------------------------|-------------------------|
C|-------------------------|-------------------------|-------2-----------2-----|-------0-----------0-----|
G|----3-----3-----3-----3--|----3-----3-----3-----3--|----0-----0-----0-----0--|----0-----0-----0-----0--|
D|-0-----------0-----------|-0-----------0-----------|-2-----------2-----------|-2-----------2-----------|
A|-------------------------|-------------------------|-------------------------|-------------------------|
E|-------------------------|-------------------------|-------------------------|-------------------------|

S|-o-----o-----0-----o-----|-o-----o-----0-----o-----|-o-----o-----0-----o-----|-o-----o-----0-----o-----|
B|-0-----------------------|-0-----------------------|-0-----------------------|-0-----------------------|
   1  +  2  +  3  +  4  +  | 1  +  2  +  3  +  4  +  | 1  +  2  +  3  +  4  +  | 1  +  2  +  3  +  4  +  |
         sleep                                 and the men who are a cut above today are often not so very deep

F|-------------------------|-------------------------|-------------------------|-------------------------|
 |                         |                         |                         |                         |
D|-------------------------|-------------------------|-------------------------|-------------------------|
 |                         | O                       |                         |                         |
B|-------------O-----------|-------------------------|----------------------O--|-------------------------|
 | O                       |                      O  |                   O     |                         |
G|-------------------------|-------------------O-----|-O--------------O--------|-------------------------|
 |                         |                O        |                         |                         |
E|-------------------------|-------------------------|-------------------------|-------------------------|


e|-------------------------|-------------------------|-------------------------|-------------------------|
C|-------0-----------0-----|-------0-----------0-----|-------2-----------2-----|-------2-----------0-----|
G|----2-----2-----2-----2--|----2-----2-----2-----0--|----3-----3-----2-----2--|----0-----0-----0-----0--|
D|-3-----------2-----------|-1-----------0-----------|-0-----------0-----------|-0-----------0-----------|
A|-------------------------|-------------------------|-------------------------|-------------------------|
E|-------------------------|-------------------------|-------------------------|-------------------------|

S|-o-----o-----0-----o-----|-o-----o-----0-----o-----|-o-----o-----0-----o-----|-o-----o-----0-----o-----|
B|-0-----------------------|-0-----------------------|-0-----------------------|-0-----------------------|
   1  +  2  +  3  +  4  +  | 1  +  2  +  3  +  4  +  | 1  +  2  +  3  +  4  +  | 1  +  2  +  3  +  4  +  |
                      Young ladies of    means will say I am I am I am Iam


8va------------------------------------------------------------------------------------------------------|

F|-O-----------------------|-------------------------|-------------------------|-------------------------|
 |             0           |                         | O                       |                         |
D|-0-----------------------|-------------------------|-------------O-----------|-------------------------|
 |             0           |                         |                         | O                       |
B|-------------------------|-0-----------------------|-------------------------|-------------------------|
 |                         |                         |                         |                         |
G|-------------------------|-0-----------------------|-------------------------|-O-----------------------|
 |                         |                         |                         |                         |
E|-------------------------|-------------------------|-------------------------|-------------------------|


e|-------1-----------1-----|-------0-----------0-----|-------------------------|-------------------------|
C|-------------------------|-------------------------|-------2-----------2-----|-------0-----------0-----|
G|----3-----3-----3-----3--|----3-----3-----3-----3--|----0-----0-----0-----0--|----0-----0-----0-----0--|
D|-0-----------0-----------|-0-----------0-----------|-2-----------2-----------|-2-----------2-----------|
A|-------------------------|-------------------------|-------------------------|-------------------------|
E|-------------------------|-------------------------|-------------------------|-------------------------|

S|-o-----o-----0-----o-----|-o-----o-----0-----o-----|-o-----o-----0-----o-----|-o-----o-----0-----o-----|
B|-0-----------------------|-0-----------------------|-0-----------------------|-0-----------------------|
   1  +  2  +  3  +  4  +  | 1  +  2  +  3  +  4  +  | 1  +  2  +  3  +  4  +  | 1  +  2  +  3  +  4  +  |
Sitting on the edges of their seats on the light rail tram, amongst the coulda-beens, also rans


F|-------------------------|-------------------------|-------------------------|-------------------------|
 |                         |                         |                         |                         |
D|-------------------------|-------------------------|-------------------------|-------------------------|
 |             O           |             O           |             O           |             O           |
B|-------------------------|-------------------------|-------------------------|-------------------------|
 |             O           |                         |             O           |                         |
G|-------------------------|-------------O-----------|-------------------------|-------------O-----------|
 |             O           |                         |             O           |                         |
E|-------------------------|-------------O-----------|-------------------------|-------------O-----------|

               1             
e|-------------------------|-------------------------|-------------------------|-------------------------|
C|-------0-----------0-----|-------0-----------0-----|-------0-----------0-----|-------0-----------0-----|
G|----0-----0-----2-----2--|----2-----2-----0-----0--|----0-----0-----2-----2--|----2-----2-----0-----0--|
D|-2-----------3-----------|-0-----------2-----------|-2-----------3-----------|-0-----------2-----------|
A|-------------------------|-------------------------|-------------------------|-------------------------|
E|-------------------------|-------------------------|-------------------------|-------------------------|

S|-o-----o-----0-----o-----|-o-----o-----0-----o-----|-o-----o-----0-----o-----|-o-----o-----0-----o-----|
B|-0-----------------------|-0-----------------------|-0-----------------------|-0-----------------------|
   1  +  2  +  3  +  4  +  | 1  +  2  +  3  +  4  +  | 1  +  2  +  3  +  4  +  | 1  +  2  +  3  +  4  +  |
 It's very little wonder   if you        cry,   it's very little    wonder       you don't   cry, 


F|-------------------------|----0--------------------|-------------------------|
 |                         | O     O                 |                         |
D|----------------------O--|----------O--------------|-------------------------|
 |                   O     |             O           |                         |
B|-------------------------|-------------------------|-------------------------|
 |                         |                         |                         |
G|-------------------------|-------------------O-----|-------------------------|
 |                         |                         |                         |
E|-------------------------|-------------------------|-------------------------|


e|-------------------------|-------------------------|-------------------------|
C|-------0-----------0-----|-------0-----------0-----|-------0-----------0-----|
G|----0-----0-----2-----2--|----2-----2-----0-----0--|----0-----0-----0-----0--|
D|-2-----------3-----------|-0-----------2-----------|-1-----------2-----------|
A|-------------------------|-------------------------|-------------------------|
E|-------------------------|-------------------------|-------------------------|

S|-o-----o-----0-----o-----|-o-----o-----0-----o-----|-------0-------------0---|
B|-0-----------------------|-0-----------------------|-0-----------0-----------|
   1  +  2  +  3  +  4  +  | 1  +  2  +  3  +  4  +  | 1  +  2  +  3  +  4  +  |
The birds were framed, the   babies were framed, and   so too the  black sky. 


 VERSE 2
 8va------------------------------------------------------------------------------------------------------|
 
 F|-------------------------|-------------------------|-------------------------|-------------------------|
  |                         |                         |                         |                         |
 D|-------------------------|-------------O-----------|-------------------------|-------------------------|
  |                         | O        O     O        |                         |                         |
 B|-------------O--------O--|-------O-----------O-----|-O-----------O-----------|-------------------------|
  | O        O        O     |    O                 O  |          O     O        |                         |
 G|-------O--------O--------|-------------------------|-------O--------------O--|-------------------------|
  |    O                    |                         |                         |                         |
 E|-------------------------|-------------------------|-------------------------|-------------------------|
                                                           O                      O

 e|-------------------------|-------------------------|-------------------------|-------------------------|
 C|-------0-----------0-----|-------0-----------0-----|-------3-----------3-----|-------3-----------0-----|
 G|----2-----2-----2-----2--|----2-----2-----2-----0--|----3-----3-----2-----2--|----0-----0-----0-----0--|
 D|-3-----------2-----------|-1-----------0-----------|-0-----------0-----------|-0-----------0-----------|
 A|-------------------------|-------------------------|-------------------------|-------------------------|
 E|-------------------------|-------------------------|-------------------------|-------------------------|
 
HH|-o--o--o--o--o--o--o--o--|-o--o--o--o--o--o--o--o--|-o--o--o--o--o--o--o--o--|-o--o--o--o--o--o--o--o--|
 S|-------0-----------0-----|-------0-----------0-----|-------0-----------0-----|-------0-----------0-----|
 B|-0-----------0-----------|-0--------o--0-----------|-0-----------0-----------|-0--------o--0-----------|
    1  +  2  +  3  +  4  +    1  +  2  +  3  +  4  +    1  +  2  +  3  +  4  +    1  +  2  +  3  +  4  +
          You can't hear the ready laughter in my song and I was laughing all day

                                                      
 8va------------------------------------------------------------------------------------------------------|
 
 F|--O----------------------|-------------------------|-------------------------|-------------------------|
  |             O           |                         | O                       |                         |
 D|-o-----------------------|-------------------------|-------------O-----------|-------------------------|
  |                         |                         |                         | O                       |
 B|o------------------------|-O-----------------------|-------------------------|-------------------------|
  |                         |                         |                         |                         |
 G|-------------------------|-O-----------------------|-------------------------|-O-----------------------|
  |                         |                         |                         |                         |
 E|-------------------------|-------------------------|-------------------------|-------------------------|


 e|-------1-----------1-----|-------0-----------0-----|-------------------------|-------------------------|
 C|-------------------------|-------------------------|-------2-----------2-----|-------0-----------0-----|
 G|----3-----3-----3-----3--|----3-----3-----3-----3--|----0-----0-----0-----0--|----0-----0-----0-----0--|
 D|-0-----------0-----------|-0-----------0-----------|-2-----------2-----------|-2-----------2-----------|
 A|-------------------------|-------------------------|-------------------------|-------------------------|
 E|-------------------------|-------------------------|-------------------------|-------------------------|

HH|-o--o--o--o--o--o--o--o--|-o--o--o--o--o--o--o--o--|-o--o--o--o--o--o--o--o--|-o--o--o--o--o--o--o--o--|
 S|-------0-----------0-----|-------0-----------0-----|-------0-----------0-----|-------0-----------0-----|
 B|-0-----------0-----------|-0--------o--0-----------|-0-----------0-----------|-0--------o--0-----------|
    1  +  2  +  3  +  4  +    1  +  2  +  3  +  4  +    1  +  2  +  3  +  4  +    1  +  2  +  3  +  4  +
 and all night long tillÖ both in tears  O brother don't clean out your ears

 
 F|-------------------------|-------------------------|-------------------------|-------------------------|
  |                         |                         |                         |                         |
 D|-------------------------|-------------------------|-------------------------|-------------------------|
  |                         | O       O   O           |                         |                         |
 B|-------------O-------O---|-----O-----------O-------|-O-----------O-----------|-------------------------|
  | O               O       |                     O   |                 O       |                         |
 G|-------------------------|-------------------------|---------O-----------O---|-------------------------|
  |                         |                         |                         |                         |
 E|-------------------------|-------------------------|-------------------------|-------------------------|
                                                           O                     O

 e|-------------------------|-------------------------|-------------------------|-------------------------|
 C|-------0-----------0-----|-------0-----------0-----|-------2-----------2-----|-------2-----------0-----|
 G|----2-----2-----2-----2--|----2-----2-----2-----0--|----3-----3-----2-----2--|----0-----0-----0-----0--|
 D|-3-----------2-----------|-1-----------0-----------|-0-----------0-----------|-0-----------0-----------|
 A|-------------------------|-------------------------|-------------------------|-------------------------|
 E|-------------------------|-------------------------|-------------------------|-------------------------|

HH|-o--o--o--o--o--o--o--o--|-o--o--o--o--o--o--o--o--|-o--o--o--o--o--o--o--o--|-o--o--o--o--o--o--o--o--|
 S|-------0-----------0-----|-------0-----------0-----|-------0-----------0-----|-------0-----------0-----|
 B|-0-----------0-----------|-0--------o--0-----------|-0-----------0-----------|-0--------o--0-----------|
    1  +  2  +  3  +  4  +    1  +  2  +  3  +  4  +    1  +  2  +  3  +  4  +    1  +  2  +  3  +  4  +
 be amazed, to find the secrets of the city in its  alley ways in the bins behind the swill cafes

                                                      
 F|-O-----------------------|-------------------------|-------------------------|-------------------------|
  |             O           |                         | O                       |                         |
 D|-------------------------|-------------------------|-------------O-----------|-------------------------|
  |                         |                         |                         |  O                      |
 B|-------------------------|-O-----------------------|-------------------------|-------------------------|
  |                         |                         |                         |o                        |
 G|-------------------------|-------------------------|-------------------------|-o-----------------------|
  |                         |                         |                         |                         |
 E|-------------------------|-------------------------|-------------------------|-------------------------|


 e|-------1-----------1-----|-------0-----------0-----|-------------------------|-------------------------|
 C|-------------------------|-------------------------|-------2-----------2-----|-------0-----------0-----|
 G|----3-----3-----3-----3--|----3-----3-----3-----3--|----0-----0-----0-----0--|----0-----0-----0-----0--|
 D|-0-----------0-----------|-0-----------0-----------|-2-----------2-----------|-2-----------2-----------|
 A|-------------------------|-------------------------|-------------------------|-------------------------|
 E|-------------------------|-------------------------|-------------------------|-------------------------|

HH|-o--o--o--o--o--o--o--o--|-o--o--o--o--o--o--o--o--|-o--o--o--o--o--o--o--o--|-o--o--o--o--o--o--o--o--|
 S|-------0-----------0-----|-------0-----------0-----|-------0-----------0-----|-------0-----------0-----|
 B|-0-----------0-----------|-0--------o--0-----------|-0-----------0-----------|-0--------o--0-----------|
    1  +  2  +  3  +  4  +    1  +  2  +  3  +  4  +    1  +  2  +  3  +  4  +    1  +  2  +  3  +  4  +
amid the clean-picked, cartlidge and spirit groans, small heart beats and a red beak groans "o pity,where's my little body gone?"


CHORUS
 F|-------------------------|-------------------------|-------------------------|-------------------------|
  |                         |                         |                         |                         |
 D|-------------------------|-------------------------|-------------------------|-------------------------|
  |                         |                         |                         |                         |
 B|-------------------------|-------------------------|-------------------------|-------------------------|
  |                         | O                       |                         |                         |
 G|----------------------O--|-------------O-----------|-------------------------|-------------------------|
  |             O     O     |                         |                         |                         |
 E|----------O-----O--------|-------------O-----------|-------------------------|-------------------------|
          O           
      -O-                                -O-


 e|-------------------------|-------------------------|-------------------------|-------------------------|
 C|-------0-----------0-----|-------0-----------0-----|-------0-----------0-----|-------0-----------0-----|
 G|----0-----0-----2-----2--|----2-----2-----0-----0--|----0-----0-----2-----2--|----2-----2-----0-----0--|
 D|-2-----------3-----------|-0-----------2-----------|-2-----------3-----------|-0-----------2-----------|
 A|-------------------------|-------------------------|-------------------------|-------------------------|
 E|-------------------------|-------------------------|-------------------------|-------------------------|

Rd|-o-----------------------|-------------------------|-------------------------|-------------------------|
HH|----o--o--o--o--o--o--o--|-o--o--o--o--o--o--o--o--|-o--o--o--o--o--o--o--o--|-o--o--o--o--o--o--o--o--|
 S|-------0-----------0-----|-------0-----------0-----|-------0-----------0-----|-------0-----------0-----|
 B|-0--------o--0-----------|-0--------o--0-----------|-0--------o--0-----------|-0--------o--0-----------|
    1  +  2  +  3  +  4  +    1  +  2  +  3  +  4  +    1  +  2  +  3  +  4  +    1  +  2  +  3  +  4  +
                   You'll know why it's very little wonder you don't cry, 
 

 F|-------------------------|----O--------------------|-------------------------|----O--------------------|
  |                         | O     O                 |                         | O     O           O     |
 D|----------------------O--|----------O--------------|----------------------O--|----------O--------------|
  |                   O     |             O           |                   O     |             O           |
 B|-------------------------|-------------------------|-------------------------|-------------------------|
  |                         |                         |                         |                         |
 G|-------------------------|-------------------O-----|-------------------------|-------------------------|
  |                         |                         |                         |                         |
 E|-------------------------|-------------------------|-------------------------|-------------------------|


 e|-------------------------|-------------------------|-------------------------|-------------------------||
 C|-------0-----------0-----|-------0-----------0-----|-------0-----------0-----|-------0-----------0-----||
 G|----0-----0-----2-----2--|----2-----2-----0-----0--|----2-----2-----0-----0--|----0-----0-----0-----0--||
 D|-2-----------3-----------|-0-----------2-----------|-0-----------2-----------|-1-----------2-----------||
 A|-------------------------|-------------------------|-------------------------|-------------------------||
 E|-------------------------|-------------------------|-------------------------|-------------------------||

HH|-o--o--o--o--o--o--o--o--|-o--o--o--o--o--o--o--o--|-o--o--o--o--o--o--o--o--|-o--o--o--o--o--o--o--o--|
 S|-------0-----------0-----|-------0-----------0-----|-------0-----------0-----|-------0-----------0-----|
 B|-0--------o--0-----------|-0--------o--0-----------|-0--------o--0-----------|-0--------o--0-----------|
    1  +  2  +  3  +  4  +    1  +  2  +  3  +  4  +    1  +  2  +  3  +  4  +    1  +  2  +  3  +  4  +
Don't be ashamed of a guilty little rain, and donít be ashamed it's just the drink


 F|-O-----------------------|-------------------------|-------------------------|-------------------------|
  |             O           |bO                       |                         |                         |
 D|-------------------------|-------------O-----------|-------------------------|-------------------------|
  |                   O     |                         |                         |                         |
 B|-------------------------|-------------------------|-O-----------------------|-------------------------|
  |                         |                   O     |             O           |                         |
 G|-------------------------|-------------------------|-------------------------|-O-----------------------|
  |                         |                         |                         |                         |
 E|-------------------------|-------------------------|-------------------------|-------------------------|


 e|-------------------------|-------------------------|-------------------------|-------------------------|
 C|-------0-----------0-----|-------0-----------0-----|-------2-----------2-----|-------2-----------0-----|
 G|----2-----2-----2-----2--|----2-----2-----2-----0--|----3-----3-----2-----2--|----0-----0-----0-----0--|
 D|-3-----------2-----------|-1-----------0-----------|-0-----------0-----------|-0-----------0-----------|
 A|-------1-----------1-----|-------------------------|-------------------------|-------------------------|
 E|-------1-----------1-----|-------------------------|-------------------------|-------------------------|

Rd|-o-----------------------|-------------------------|-------------------------|-------------------------|                         
HH|----o--o--o--o--o--o--o--|-o--o--o--o--o--o--o--o--|-o--o--o--o--o--o--o--o--|-------------------------|
 S|-------0-----------0-----|-------0-----------0-----|-------0-----------0-----|-------0-----------0-----|
 B|-0--------o--0-----------|-0--------o--0-----------|-0--------o--0-----------|-0--------o--0-----------|
    1  +  2  +  3  +  4  +    1  +  2  +  3  +  4  +    1  +  2  +  3  +  4  +    1  +  2  +  3  +  4  +

                                                                                                  One


 F|-------------------------|-------------------------|-------------------------|-------------------------|
  |                         |                         |                         |                         |
 D|-------------------------|-------------------------|-------------------------|-------------------------|
  |                         |                         |                         |                         |
 B|-------------------------|-------------------------|-------------------------|-------------------------|
  |                         |                         |                         |                         |
 G|-------------------------|-------------------------|-------------------------|-------------------------|
  |                         |                         |                         |                         |
 E|-------------------------|-------------------------|-------------------------|-------------------------|
 
 
 e|-------1-----------1-----|-------0-----------0-----|-------1-----------1-----|-------0-----------0-----|
 C|-------------------------|-------------------------|-------------------------|-------------------------|
 G|----3-----3-----3-----3--|----3-----3-----3-----3--|----3-----3-----3-----3--|----3-----3-----3-----3--|
 D|-0-----------0-----------|-0-----------0-----------|-0-----------0-----------|-0-----------0-----------|
 A|-------------------------|-------------------------|-------------------------|-------------------------|
 E|-------------------------|-------------------------|-------------------------|-------------------------|

Rd|-0-----------------------|-------------------------|-------------------------|-------------------------| 
Hf|-------------------0-----|-------------------0-----|-------------------0-----|-------------------0-----|
 S|-------------------------|-------------------------|-------------------------|-------------------------|
 B|-0--------o--0-----------|-0--------o--0-----------|-0--------o--0-----------|-0--------o--0-----------|
    1  +  2  +  3  +  4  +    1  +  2  +  3  +  4  +    1  +  2  +  3  +  4  +    1  +  2  +  3  +  4  +  
  marks a place, one makes a time, one stops a'living, one goes about dying..


 F|-------------------------|-------------------------||
  |                         |                         ||
 D|-------------------------|-------------------------||
  |                         |                         ||
 B|-------------------------|-------------------------||
  |                         |                         ||
 G|-------------------------|-------------------------||
  |                         |                         ||
 E|-------------------------|-------------------------||
 
 
 e|-------------------------|-------------------------||
 C|-------0-----------0-----|-------0-----------------||
 G|----0-----0-----2-----2--|----2-----2--------------||
 D|-2-----------3-----------|-0-----------2-----------||
 A|-------------------------|-------------------------||
 E|-------------------------|-------------------------||


Rd|-------------------------|----------------------0--||
Hf|-------------------0-----|-------------------------||
 S|-------------------------|-------------------oo----||
 B|-0--------o--0-----------|-0--------o--0-----------||
    1  +  2  +  3  +  4  +    1  +  2  +  3  +  4  +


Trumpet solo                 O                                                   O
 F|-------------------------|o------------------------|-------------------------|-------------------------|
  |                         |                         |                         |                         |
 D|------------bO-----------|------bO-----------------|------------bO-----------|-----O--bO---------------|
  |          O o    O       |                         |          O      O       |             O           |
 B|-------O-------------O---|---------------------O---|-------O-------------O---|-------------------O-----|
  |                         |                         |                         |                         |
 G|----O--------------------|-------------------------|-O--O--------------------|----------------------O--|
  |                         |                         |                         |                         |
 E|-------------------------|-------------------------|-------------------------|-------------------------|

 e|-------1-----------------|-------------------------|-------1-----------------|-------------------------|
 C|----2-----2--------0-----|-------1-----------0-----|----2-----2--------0-----|-------1------------0----|
 G|-0--------------0-----0--|----0-----0-----0-----0--|-0-----------0--------0--|----0-----0-----0-----0--|
 D|-------------3-----------|-1-----------0-----------|----------------3--------|-1-----------0-----------|
 A|-------------------------|-------------------------|-------------------------|-------------------------|
 E|-------------------------|-------------------------|-------------------------|-------------------------|

HH|-o--o--o--o--o--o--o--o--|-o--o--o--o--o-----------|-o--o--o--o--o--o--o--o--|-o--o--o--o--o-----------|
 S|-------0-----------0-----|-------0--------x--x--x--|-------0-----------0-----|-------0--------xx-x--x--|
 B|-0--------o--0-----------|-0--------o--0-----------|-0--------o--0-----------|-0--------o--0-----------|
    1  +  2  +  3  +  4  +    1  +  2  +  3  +  4  +    1  +  2  +  3  +  4  +    1  +  2  +  3  +  4  +  

 
                                                                                    -O-
                                                            O                bO  O       O
 F|-------------------------|-------------------------|----------O------------O-|-------------------------|
  |                         |                         |            O         O  |                         |
 D|------------bO-----------|------------bO-----------|----------------O----O---|-------------------------|
  |          O o    O       |          O o    O       |                 O  O    |                         |
 B|-------O-------------O---|-------O-------------O---|-------------------------|-------------------------|
  |                         |                         |                         |                         | 
 G|----O--------------------|----O--------------------|----O--------------------|-------------------------|
  |                         |                         |                         |                         |
 E|-------------------------|-------------------------|-------------------------|-O-----------0-----------|
  |                                                                          O             0              |
  |                                                                      -O-           -O-                |
  |                                                                    O                                  |
 A|-------------------------|-------------------------|-------------O-----------|-------------------------|
  |                         |                         |          O              |                         |
 F|-------------------------|-------------------------|-------O-----------------|-------------------------|
  |                         |                         |    O                    |                         |
 D|-------------------------|-------------------------|-------------------------|-------------------------|
  |                         |                         |                         |                         |
 B|-------------------------|-------------------------|-------------------------|-------------------------|
  |                         |                         |                         |                         |
 G|-------------------------|-------------------------|-------------------------|-------------------------|

 e|-------1-----------------|-------------------------|-------------------------|-------------------------|
 C|----2-----2-----------0--|-------1-----------0-----|-------0-----------0-----|-------0-----------0-----|
 G|-0-----------0-----0-----|----0-----0-----0-----0--|----0-----0-----0-----0--|----0-----0-----0-----0--|
 D|----------------3--------|-1-----------0-----------|-1-----------1-----------|-2-----------2-----------|
 A|-------------------------|-------------------------|-------------------------|-------------------------|
 E|-------------------------|-------------------------|-------------------------|-------------------------|

 C|-------------------------|-------------------------|-------------------------|-0-----------------------|
HH|-o--o--o--o--o--o--o--o--|-o--o--o--o--o-----------|-o--o--o--o--o--o--o--o--|-------------------------|
 S|-------0-----------0-----|-------0--------x--x--x--|-------0-----------0-----|-0-----------oo-oo-oo-oo-|
 B|-0--------o--0-----------|-0--------o--0-----------|-0--------o--0-----------|-------------------------|
    1  +  2  +  3  +  4  +    1  +  2  +  3  +  4  +    1  +  2  +  3  +  4  +    1  +  2  +  3  +  4  +  


 F|-------------------------|-------------------------|-------------------------|-------------------------|
  |                         |                         |                         |                         |
 D|-------------------------|-------------O-----------|-------------------------|-------------------------|
  |                         | O        O     O        |                         |                         |
 B|-------------O--------O--|-------O-----------O-----|-O-----------O-----------|-------------------------|
  | O        O        O     |    O                 O  |          O     O       O|                         |
 G|-------O--------O--------|-------------------------|-------O--------------O--|-------------------------|
  |    O                    |                         |                         |                         |
 E|-------------------------|-------------------------|-------------------------|-------------------------|
                                                           O                      O        O  O
                                                                                                 -O- ---
                                                                                                      O

 e|-------------------------|-------------------------|-------------------------|-------------------------|
 C|-------0-----------0-----|-------0-----------0-----|-------2-----------2-----|-------2-----------0-----|
 G|----2-----2-----2-----2--|----2-----2-----2-----0--|----3-----3-----2-----2--|----0-----0-----0-----0--|
 D|-3-----------2-----------|-1-----------0-----------|-0-----------0-----------|-0-----------0-----------|
 A|-------------------------|-------------------------|-------------------------|-------------------------|
 E|-------------------------|-------------------------|-------------------------|-------------------------|

 C|-0-----------------------|-------------------------|-------------------------|-------------------------|
HH|----o--o--o--o--o--o--o--|-o--o--o--o--o--o--o--o--|-o--o--o--o--o--o--o--o--|-o--o--o--o--o--o--o--o--|
 S|-------0-----------0-----|-------0-----------0-----|-------0-----------0-----|-------0-----------0-----|
 B|-0--------o--0-----------|-0--------o--0-----------|-0--------o--0-----------|-0--------o--0-----------|
    1  +  2  +  3  +  4  +    1  +  2  +  3  +  4  +    1  +  2  +  3  +  4  +    1  +  2  +  3  +  4  +  
 Somebody blew their brains out in this room,  I can feel it like it happened just this afternoon


 F|-O-----------------------|-------------------------|-------------------------|-------------------------|
  |             O           |                         | O                       |                         |
 D|-------------------------|-------------------------|-------------O-----------|-------------------------|
  |                         |                         |                         | O                       |
 B|-------------------------|-O-----------------------|-------------------------|-------------------------|
  |                         |                         |                         |                         |
 G|-------------------------|-------------------------|-------------------------|------------------bO--O--|
  |                         |                         |                         |                O        |
 E|---------O---------------|-------------------------|---------O---------------|-------------O-----------|
                                          O                 O                              O
   --- -O-                       --- -O-     -O- ---   -O-                          ----O-
    O                             O               O                                  O
 
 
 e|-------1-----------1-----|-------0-----------0-----|-------------------------|-------------------------|
 C|-------------------------|-------------------------|-------2-----------2-----|-------0-----------0-----|
 G|----3-----3-----3-----3--|----3-----3-----3-----3--|----0-----0-----0-----0--|----0-----0-----0-----0--|
 D|-0-----------0-----------|-0-----------0-----------|-2-----------2-----------|-2-----------2-----------|
 A|-------------------------|-------------------------|-------------------------|-------------------------|
 E|-------------------------|-------------------------|-------------------------|-------------------------|

 C|-------------------------|-------------------------|-------------------------|-------------------------|
HH|-o--o--o--o--o--o--o--o--|-o--o--o--o--o--o--o--o--|-o--o--o--o--o--o--o--o--|-o--o--o--o--o--o--o--o--|
 S|-------0-----------0-----|-------0-----------0-----|-------0-----------0-----|-------0-----------0-----|
 B|-0--------o--0-----------|-0--------o--0-----------|-0--------o--0-----------|-0--------o--0-----------|
    1  +  2  +  3  +  4  +    1  +  2  +  3  +  4  +    1  +  2  +  3  +  4  +    1  +  2  +  3  +  4  +  
On the wall behind some furniture, there's a stain the shape of Africa O fear walks tall, when it's halfway down...


                                                O
                                               ----O-
                                                        O
 F|-------------------------|-------------------------|-------O-----------------|-------------------------|
  |                         |               bO        |            bO           |                         |
 D|-------------------------|-------------O-----------|----O--------------O-----|-------------------------|
  |                         | O        O              |          O              | O                       |
 B|-------------O--------O--|-------O-----------------|----------------O--------|-----O-------------------|
  | O        O        O     |    O                    |                      O  |         O               |
 G|-------O--------O--------|-------------------------|-------------------------|-------------O-----------|
  |    O                    |                         |                         |                O        |
 E|-------------------------|-------------------------|-------------------------|-------------------------|
                                                                                                    O
                                                                                                      -O-
 
 e|-------------------------|-------------------------|-------------------------|-------------------------|
 C|-------0-----------0-----|-------0-----------0-----|-------2-----------2-----|-------2-----------0-----|
 G|----2-----2-----2-----2--|----2-----2-----2-----0--|----3-----3-----2-----2--|----0-----0-----0-----0--|
 D|-3-----------2-----------|-1-----------0-----------|-0-----------0-----------|-0-----------0-----------|
 A|-------------------------|-------------------------|-------------------------|-------------------------|
 E|-------------------------|-------------------------|-------------------------|-------------------------|

 C|-0-----------------------|-------------------------|-------------------------|-------------------------|
HH|----o--o--o--o--o--o--o--|-o--o--o--o--o--o--o--o--|-o--o--o--o--o--o--o--o--|-o--o--o--o--o--o--o--o--|
 S|-------0-----------0-----|-------0-----------0-----|-------0-----------0-----|-------0-----------0-----|
 B|-0--------o--0-----------|-0--------o--0-----------|-0--------o--0-----------|-0--------o--0-----------|
    1  +  2  +  3  +  4  +    1  +  2  +  3  +  4  +    1  +  2  +  3  +  4  +    1  +  2  +  3  +  4  +  
  alcohol. I could hear the heavy footsteps in his hallowed halls, little wonder that he sooned devised to


 F|-O-----------------------|-------------------------|-------------------------|-------------------------|
  |             O           |                         | O                       |                         |
 D|-------------------------|-------------------------|-------------O-----------|-------------------------|
  |                         |                         |                         | O                       |
 B|-------------------------|-O-----------------------|-------------------------|-------O-----------------|
  |                         |                         |                         |                         |
 G|-------------------------|-------------------------|-------------------------|----------O-----------O--|
  |                         |                         |                         |                   O     |
 E|---------O---------------|-------------O-----------|---------O---------------|----------------O--------|
                                       O     O      O       O                       
   --- -O-                      ----O-         -O-     -O-                                 
    O                            O                                                             

 e|-------1-----------1-----|-------0-----------0-----|-------------------------|--------------------------|
 C|-------------------------|-------------------------|-------2-----------2-----|-------0-----------0------|
 G|----3-----3-----3-----3--|----3-----3-----3-----3--|----0-----0-----0-----0--|----0-----0-----0-----0---|
 D|-0-----------0-----------|-0-----------0-----------|-2-----------2-----------|-2-----------2------------|
 A|-------------------------|-------------------------|-------------------------|--------------------------|
 E|-------------------------|-------------------------|-------------------------|--------------------------|

 C|-------------------------|-------------------------|-------------------------|-------------------------|
HH|-o--o--o--o--o--o--o--o--|-o--o--o--o--o--o--o--o--|-o--o--o--o--o--o--o--o--|-o--o--o--o--o-----------|
 S|-------0-----------0-----|-------0-----------0-----|-------0-----------0-----|-------0--------0--0--0--|
 B|-0--------o--0-----------|-0--------o--0-----------|-0--------o--0-----------|-0--------o--0-----------|
    1  +  2  +  3  +  4  +    1  +  2  +  3  +  4  +    1  +  2  +  3  +  4  +    1  +  2  +  3  +  4  +   
 Rid them all in on great gushing fall, The billion tiny devil's feet that nightly walk that bloody beat

 
 F|-------------------------|-------------------------|-------------------------|-------------------------|
  |                         |                         |                         |                         |
 D|-------------------------|-------------------------|-------------------------|-------------------------|
  |                         | O                       |                         |                         |
 B|-------------------------|-------------------------|-------------------------|-------------------------|
  |             O           | O                       |                         |                         |
 G|----------O--------------|-------------------------|-------------------------|-------------------------|
  |       O                 |                         |                         |                         |
 E|----O--------------------|-------------------------|-------------------------|-------------------------|
                              O
 
 e|-------------------------|-------------------------|-------------------------|-------------------------|
 C|-------0-----------0-----|-------0-----------0-----|-------0-----------0-----|-------0-----------0-----|
 G|----0-----0-----2-----2--|----2-----2-----0-----0--|----0-----0-----2-----2--|----2-----2-----0-----0--|
 D|-2-----------3-----------|-0-----------2-----------|-2-----------3-----------|-0-----------2-----------|
 A|-------------------------|-------------------------|-------------------------|-------------------------|
 E|-------------------------|-------------------------|-------------------------|-------------------------|

 C|-------------0-----------|-------------------------|-------------------------|-------------------------|
HH|----------------o--o--o--|-o--o--o--o--o--o--o--o--|-o--o--o--o--o--o--o--o--|-o--o--o--o--o--o--o--o--|
LT|----0--0--0--0-----------|-------0-----------0-----|-------0-----------0-----|-------0-----------0-----|
 S|-0-----------------0-----|-------------------------|-------------------------|-------------------------|
 B|----------------------o--|-0-----------0--------o--|-0-----------0--------o--|-0-----------0--------o--|
    1  +  2  +  3  +  4  +    1  +  2  +  3  +  4  +    1  +  2  +  3  +  4  +    1  +  2  +  3  +  4  +   
      Hi ho, ho hum,          Get yourself a gun,       open up your  heart,      let the bleeders run


 F|-------------------------|----O--------------------|------------- -----------|----O--------------------|
  |                         | O     O                 |                         | O     O                 |
 D|----------------------O--|----------O--------------|----------------------O--|----------O--------------|
  |                   O     |             O           |                   O     |             O           |
 B|-------------------------|-------------------------|-------------------------|-------------------------|
  |                         |                         |                         |                         |
 G|-------------------------|-------------------O-----|-------------------------|-------------------O-----|
  |                         |                         |                         |                         |
 E|-------------------------|-------------------------|-------------------------|-------------------------|
  
 e|-------------------------|-------------------------|-------------------------|-------------------------|
 C|-------0-----------0-----|-------0-----------0-----|-------0-----------0-----|-------0-----------0-----|
 G|----0-----0-----2-----2--|----2-----2-----0-----0--|----0-----0-----2-----2--|----2-----2-----0-----0--|
 D|-2-----------3-----------|-0-----------2-----------|-2-----------3-----------|-0-----------2-----------|
 A|-------------------------|-------------------------|-------------------------|-------------------------|
 E|-------------------------|-------------------------|-------------------------|-------------------------|

 C|-------------0-----------|-------------------------|-------------------------|-------------------------|
HH|----------------o--o--o--|-o--o--o--o--o--o--o--o--|-o--o--o--o--o--o--o--o--|-o--o--o--o--o--o--o--o--|
LT|-------------------------|-------------------------|-------------------------|-------------------------| 
 S|----0--0-----------0-----|-------0-----------0-----|-------0-----------0-----|-------0--------0--0--0--|
 B|-0-----------------------|-0--------o--0-----------|-0--------o--0-----------|-0--------o--0-----------|
    1  +  2  +  3  +  4  +    1  +  2  +  3  +  4  +    1  +  2  +  3  +  4  +    1  +  2  +  3  +  4  +  
    hi  ho      hum,        Move the thing along,     open up your  heart,      let the evening come


                                                                                                        8ve--
 
 F|-------------------------|----O--------------------|------------- -----------|----O--------------------|
  |                         | O     O                 |                         | O     O                 |
 D|----------------------O--|----------O--------------|----------------------O--|----------O--------------|
  |                   O     |             O           |                   O     |             O           |
 B|-------------------------|-------------------------|-------------------------|-------------------------|
  |                         |                         |                         |                         |
 G|-------------------------|-------------------O-----|-------------------------|-------------------O-----|
  |                         |                         |                         |                         |
 E|-------------------------|-------------------------|-------------------------|-------------------------|
  
 e|-------------------------|-------------------------|-------------------------|-------------------------|
 C|-------0-----------0-----|-------0-----------0-----|-------0-----------0-----|-------0-----------0-----|
 G|----0-----0-----2-----2--|----2-----2-----0-----0--|----0-----0-----2-----2--|----2-----2-----0-----0--|
 D|-2-----------3-----------|-0-----------2-----------|-2-----------3-----------|-0-----------2-----------|
 A|-------------------------|-------------------------|-------------------------|-------------------------|
 E|-------------------------|-------------------------|-------------------------|-------------------------|

 C|-------------0-----------|-------------------------|-------------------------|-------------------------|
HH|----------------o--o--o--|-o--o--o--o--o--o--o--o--|-o--o--o--o--o--o--o--o--|-o--o--o--o--o--o--o--o--|
LT|----0--0--o--------------|-------------------------|-------------------------|-------------------------| 
 S|-0-----------------0-----|-------0-----------0-----|-------0-----------0-----|-------0-----------0--0--|
 B|-------------------------|-0--------o--0-----------|-0--------o--0-----------|-0--------o--0-----------|
    1  +  2  +  3  +  4  +    1  +  2  +  3  +  4  +    1  +  2  +  3  +  4  +    1  +  2  +  3  +  4  +  
    hi  ho      hum         Get yourself a gun,       Open up your heart and    let the bleeders run


 8ve---------------|                                                                                                            -O-
                                                                                                                  O            O
 F|-------------O-----------|----O--------------------|-------------------------|-------------------------|-O----------------O------||
  |       O                 | O     O                 |                         | O     O           O     |                         ||
 D|----------------------O--|----------O--------------|----------------------O--|----------O--------------|-------------------------||
  | O                 O     |             O           |                   O     |             O           |                         ||
 B|-------------------------|-------------------------|-------------------------|-------------------------|-------------------------||
  |                         |                         |                         |                         |                         ||
 G|-------------------------|-------------------O-----|-------------------------|-------------------------|-------------------------||
  |                         |                         |                         |                         |                         ||
 E|-------------------------|-------------------------|-------------------------|-------------------------|-------------------------||

 e|-------------------------|-------------------------|-------------------------|-------------------------|-------------------------||
 C|-------0-----------0-----|-------0-----------0-----|-------0-----------0-----|-------0-----------0-----|-------------------------||
 G|----2-----2-----0-----0--|----0-----0-----2-----2--|----2-----2-----0-----0--|----0-----0-----0-----0--|-------------------------||
 D|-0-----------2-----------|-2-----------3-----------|-0-----------2-----------|-1-----------2-----------|-3-----------------------||
 A|-------------------------|-------------------------|-------------------------|-------------------------|-------------------------||
 E|-------------------------|-------------------------|-------------------------|-------------------------|-------------------------||

 C|-------------0-----------|-------------------------|-------------------------|-------------------------|----0--------------------||
HH|----------------o--o--o--|-o--o--o--o--o--o--o--o--|-o--o--o--o--o--o--o--o--|-o--o--o--o--o--o--o--o--|-o-----------------------||
LT|-------------------------|-------------------------|-------------------------|-------------------------|-------------------------||
 S|----0--0-----------0-----|-------0-----------0-----|-------0-----------0-----|-------0-----------0-----|-------------------------||
 B|-------------------------|-0--------o--0-----------|-0--------o--0-----------|-0--------o--0-----------|-o--0--------------------||
    1  +  2  +  3  +  4  +    1  +  2  +  3  +  4  +    1  +  2  +  3  +  4  +    1  +  2  +  3  +  4  +    1  +  2  +  3  +  4  +  
               hum,          Think about your mum,     open up your  heart       let the evening come darkly in.