Little Wonder
Written by Glenn Richards
guitar tab by by Glen Maddern
VERSE 1
      
Well it's my

e|:-------------------------|-------------------------|-------------------------|-------------------------|
C|:-------0-----------0-----|-------0-----------0-----|-------2-----------2-----|-------2-----------0-----|
G|:----2-----2-----2-----2--|----2-----2-----2-----0--|----3-----3-----2-----2--|----0-----0-----0-----0--|
D|:-3-----------2-----------|-1-----------0-----------|-0-----------0-----------|-0-----------0-----------|
A|:-------------------------|-------------------------|-------------------------|-------------------------|
E|:-------------------------|-------------------------|-------------------------|-------------------------|
   very little wonder and it's one that I will keep, But you can take it with you if it helps you when you're trying to
                        Young ladies of    means will say I am I am I am Iam


e|-------1-----------1-----|-------0-----------0-----|-------------------------|-------------------------:|
C|-------------------------|-------------------------|-------2-----------2-----|-------0-----------0-----:|
G|----3-----3-----3-----3--|----3-----3-----3-----3--|----0-----0-----0-----0--|----0-----0-----0-----0--:|
D|-0-----------0-----------|-0-----------0-----------|-2-----------2-----------|-2-----------2-----------:|
A|-------------------------|-------------------------|-------------------------|-------------------------:|
E|-------------------------|-------------------------|-------------------------|-------------------------:| x2
         sleep                                 and the men who are a cut above today are often not so very deep
Sitting on the edges of their seats on the light rail tram, amongst the         coulda-beens, also rans


e|-------------------------|-------------------------|-------------------------|-------------------------|
C|-------0-----------0-----|-------0-----------0-----|-------0-----------0-----|-------0-----------0-----|
G|----0-----0-----2-----2--|----2-----2-----0-----0--|----0-----0-----2-----2--|----2-----2-----0-----0--|
D|-2-----------3-----------|-0-----------2-----------|-2-----------3-----------|-0-----------2-----------|
A|-------------------------|-------------------------|-------------------------|-------------------------|
E|-------------------------|-------------------------|-------------------------|-------------------------|
 It's very little wonder   if you        cry,   it's very little    wonder       you don't   cry, 


e|-------------------------|-------------------------|-------------------------|
C|-------0-----------0-----|-------0-----------0-----|-------0-----------0-----|
G|----0-----0-----2-----2--|----2-----2-----0-----0--|----0-----0-----0-----0--|
D|-2-----------3-----------|-0-----------2-----------|-1-----------2-----------|
A|-------------------------|-------------------------|-------------------------|
E|-------------------------|-------------------------|-------------------------|
The birds were framed, the   babies were framed, and   so too the  black sky. 


VERSE 2
e|:-------------------------|-------------------------|-------------------------|-------------------------|
C|:-------0-----------0-----|-------0-----------0-----|-------3-----------3-----|-------3-----------0-----|
G|:----2-----2-----2-----2--|----2-----2-----2-----0--|----3-----3-----2-----2--|----0-----0-----0-----0--|
D|:-3-----------2-----------|-1-----------0-----------|-0-----------0-----------|-0-----------0-----------|
A|:-------------------------|-------------------------|-------------------------|-------------------------|
E|:-------------------------|-------------------------|-------------------------|-------------------------|
                    You can't hear the ready laughter in my song and I was laughing all day yesterday 
 be amazed, to find the secrets of the city in its   alley ways           in the bins behind the swill cafes


e|-------1-----------1-----|-------0-----------0-----|-------------------------|-------------------------:|
C|-------------------------|-------------------------|-------2-----------2-----|-------0-----------0-----:|
G|----3-----3-----3-----3--|----3-----3-----3-----3--|----0-----0-----0-----0--|----0-----0-----0-----0--:|
D|-0-----------0-----------|-0-----------0-----------|-2-----------2-----------|-2-----------2-----------:|
A|-------------------------|-------------------------|-------------------------|-------------------------:|
E|-------------------------|-------------------------|-------------------------|-------------------------:| x2
 and all night long till we threw off the fears, had us both in tears  O brother don't clean out your ears and you might
 amid the clean-picked,      cartlidge and spirit groans, small heart beats and a red beak groans "o pity,where's my little body gone?"


CHORUS
e|-------------------------|-------------------------|-------------------------|-------------------------|
C|-------0-----------0-----|-------0-----------0-----|-------0-----------0-----|-------0-----------0-----|
G|----0-----0-----2-----2--|----2-----2-----0-----0--|----0-----0-----2-----2--|----2-----2-----0-----0--|
D|-2-----------3-----------|-0-----------2-----------|-2-----------3-----------|-0-----------2-----------|
A|-------------------------|-------------------------|-------------------------|-------------------------|
E|-------------------------|-------------------------|-------------------------|-------------------------|
                             You'll know why it's      very little wonder        you don't cry, 
 

e|-------------------------|-------------------------|-------------------------|-------------------------||
C|-------0-----------0-----|-------0-----------0-----|-------0-----------0-----|-------0-----------0-----||
G|----0-----0-----2-----2--|----2-----2-----0-----0--|----2-----2-----0-----0--|----0-----0-----0-----0--||
D|-2-----------3-----------|-0-----------2-----------|-0-----------2-----------|-1-----------2-----------||
A|-------------------------|-------------------------|-------------------------|-------------------------||
E|-------------------------|-------------------------|-------------------------|-------------------------||
Don't be     ashamed of a    guilty little rain, and donít be ashamed it's just the drink, it's just the drink, it's just the drink


e|-------------------------|-------------------------|-------------------------|-------------------------|
C|-------0-----------0-----|-------0-----------0-----|-------2-----------2-----|-------2-----------0-----|
G|----2-----2-----2-----2--|----2-----2-----2-----0--|----3-----3-----2-----2--|----0-----0-----0-----0--|
D|-3-----------2-----------|-1-----------0-----------|-0-----------0-----------|-0-----------0-----------|
A|-------1-----------1-----|-------------------------|-------------------------|-------------------------|
E|-------1-----------1-----|-------------------------|-------------------------|-------------------------|
                                                                                                  One


e|-------1-----------1-----|-------0-----------0-----|-------1-----------1-----|-------0-----------0-----|
C|-------------------------|-------------------------|-------------------------|-------------------------|
G|----3-----3-----3-----3--|----3-----3-----3-----3--|----3-----3-----3-----3--|----3-----3-----3-----3--|
D|-0-----------0-----------|-0-----------0-----------|-0-----------0-----------|-0-----------0-----------|
A|-------------------------|-------------------------|-------------------------|-------------------------|
E|-------------------------|-------------------------|-------------------------|-------------------------|
 marks a place, one makes a time, one stops a'living, one goes about dying..


e|-------------------------|-------------------------||
C|-------0-----------0-----|-------0-----------------||
G|----0-----0-----2-----2--|----2-----2--------------||
D|-2-----------3-----------|-0-----------2-----------||
A|-------------------------|-------------------------||
E|-------------------------|-------------------------||


Trumpet solo
e|-------1-----------------|-------------------------|-------1-----------------|-------------------------|
C|----2-----2--------0-----|-------1-----------0-----|----2-----2--------0-----|-------1------------0----|
G|-0--------------0-----0--|----0-----0-----0-----0--|-0-----------0--------0--|----0-----0-----0-----0--|
D|-------------3-----------|-1-----------0-----------|----------------3--------|-1-----------0-----------|
A|-------------------------|-------------------------|-------------------------|-------------------------|
E|-------------------------|-------------------------|-------------------------|-------------------------|


e|-------1-----------------|-------------------------|-------------------------|-------------------------|
C|----2-----2-----------0--|-------1-----------0-----|-------0-----------0-----|-------0-----------0-----|
G|-0-----------0-----0-----|----0-----0-----0-----0--|----0-----0-----0-----0--|----0-----0-----0-----0--|
D|----------------3--------|-1-----------0-----------|-1-----------1-----------|-2-----------2-----------|
A|-------------------------|-------------------------|-------------------------|-------------------------|
E|-------------------------|-------------------------|-------------------------|-------------------------|


e|:-------------------------|-------------------------|-------------------------|-------------------------|
C|:-------0-----------0-----|-------0-----------0-----|-------2-----------2-----|-------2-----------0-----|
G|:----2-----2-----2-----2--|----2-----2-----2-----0--|----3-----3-----2-----2--|----0-----0-----0-----0--|
D|:-3-----------2-----------|-1-----------0-----------|-0-----------0-----------|-0-----------0-----------|
A|:-------------------------|-------------------------|-------------------------|-------------------------|
E|:-------------------------|-------------------------|-------------------------|-------------------------|
Somebody blew their brains out in this room,  I can feel it like it happened just this afternoon
 alcohol. I could hear the heavy footsteps in his hallowed halls, little wonder that he sooned devised to


e|-------1-----------1-----|-------0-----------0-----|-------------------------|-------------------------:|
C|-------------------------|-------------------------|-------2-----------2-----|-------0-----------0-----:|
G|----3-----3-----3-----3--|----3-----3-----3-----3--|----0-----0-----0-----0--|----0-----0-----0-----0--:|
D|-0-----------0-----------|-0-----------0-----------|-2-----------2-----------|-2-----------2-----------:|
A|-------------------------|-------------------------|-------------------------|-------------------------:|
E|-------------------------|-------------------------|-------------------------|-------------------------:| x2
On the wall behind some furniture, there's a stain the shape of Africa O fear walks tall, when it's halfway down...
Rid them all in on great gushing fall, The billion tiny devil's feet that nightly walk that bloody beat

 
e|:-------------------------|-------------------------|-------------------------|-------------------------:|
C|:-------0-----------0-----|-------0-----------0-----|-------0-----------0-----|-------0-----------0-----:|
G|:----0-----0-----2-----2--|----2-----2-----0-----0--|----0-----0-----2-----2--|----2-----2-----0-----0--:|
D|:-2-----------3-----------|-0-----------2-----------|-2-----------3-----------|-0-----------2-----------:|
A|:-------------------------|-------------------------|-------------------------|-------------------------:|
E|:-------------------------|-------------------------|-------------------------|-------------------------:| x3
     Hi ho, ho hum,          Get yourself a gun,       open up your  heart,      let the bleeders run
   hi  ho      hum,        Move the thing along,     open up your  heart,      let the evening come
   hi  ho      hum         Get yourself a gun,       Open up your heart and    let the bleeders run


e|-------------------------|-------------------------|-------------------------|-------------------------|-------||
C|-------0-----------0-----|-------0-----------0-----|-------0-----------0-----|-------0-----------0-----|-------||
G|----2-----2-----0-----0--|----0-----0-----2-----2--|----2-----2-----0-----0--|----0-----0-----0-----0--|-------||
D|-0-----------2-----------|-2-----------3-----------|-0-----------2-----------|-1-----------2-----------|-3-----||
A|-------------------------|-------------------------|-------------------------|-------------------------|-------||
E|-------------------------|-------------------------|-------------------------|-------------------------|-------||
               hum,          Think about your mum,     open up your  heart       let the evening come darkly in.