Have you tabbed this for a different instrument? Send it to us.

One Crowded Hour
Written by Glenn Richards
guitar tab by Rebecca Barton

Standard tuning, capo 2nd fret, counted from the capo

   G             Am            Bm            C             D
e|-------------|-------------|-------------|-------------|---2-----2---|-------------|
B|-0-----0-----|---1-----1---|---3-----3---|-----1---1---|-----3-----3-|-------------|
G|---------0---|-----2--2--2-|-----4-----4-|---0----0--0-|-------2-----|-2-----------|
D|-----------0-|-------2-----|-------4-----|-------2-----|-0-----------|-------------|
A|-------------|-0-----------|-2-----------|-3-----------|-------------|-------------|
E|-3-----------|-------------|-------------|-------------|-------------|-------------|

                                                                         Now should you

     G             Am            Bm            C            
e||:-------3-----|-------------|-------------|-------------|
B||:-------------|---1-----1---|---3-----3---|---5-----5---|
G||:-------------|-----2-----2-|-----4-----4-|-----5-----5-|
D||:-------------|-------2-----|-------4-----|-------5-----|
A||:-------------|-0-----------|-2-----------|-3-----------|
E||:-3-----------|-------------|-------------|-------------|
   expect to       you hadn't    body you've   you were 16  
   nowhere bars    nonsense      makin'        know it's


   D             Em            C              G             C             D
e|-------------|-------------|--------------|-------------|-------------|-------------:||
B|---7-----7---|---8-----8---|--------------|-------------|---5-----5---|-------------:||
G|-----7-----7-|-----9-----9-|---9-----9----|---4-----4---|-----5--5--5-|-------------:||
D|-------7-----|-------9-----|-----10----10-|-----5-----5-|-------5-----|-------------:||
A|-5-----------|-7-----------|-------10-----|-------5-----|-3-----------|-5-----------:||
E|-------------|-------------|-8------------|-3-----------|-------------|-------------:||
if love     is a bolt          what           glorified     doesn't       together.     Far from these
   nothing       eating        drinking gin   nothing else  doesn't    me together.     But for


Chorus:
   G             Am            Bm            C
e|---3---------|-------------|-------------|-------------|
B|-----3-----3-|---1-----1---|---3-----3---|---5-----5---|
G|---------0---|-----2-----2-|-----4--4--4-|-----5-----5-|
D|-------0-----|-------2-----|-------4-----|-------5-----|
A|-------------|-0-----------|-2-----------|-3-----------|
E|-3-----------|-------------|-------------|-------------|
   one        crowded hour     only one      room


   D             Em            C              G
e|-------------|-------------|--------------|-------------|
B|---7-----7---|---8-------8-|--------------|-------------|
G|-----7--7--7-|-----9---9---|---9-----9----|---4-----4---|
D|-------7-----|-------9-----|-----10----10-|-----5-----5-|
A|-5-----------|-7-----------|-------10-----|-------5-----|
E|-------------|-------------|-8------------|-3-----------|
  I sailed       bumps in   to your           gloom


   Bm            C              G             Em
e|-------------|--------------|-------------|-------------|
B|-------------|--------------|-------------|-------------|
G|---7-----7---|---9-----9----|---4-----4---|---0-----0---|
D|-----9-----9-|-----10----10-|-----5-----5-|-----2-----2-|
A|-------9-----|-------10-----|-------5-----|-------2-----|
E|-7-----------|-8------------|-3-------3-2-|-0-----------|
 I thought       golden         middle   poiple june


   G             Am            C     D       G
e|-------------|---0-----0---|-------------|---3---------|
B|---3-----3---|-----1-----1-|---5-----7---|---3---------|
G|-----4-----4-|-------------|-----5-----7-|---0---------|
D|-------5-----|-------2-----|-------------|---0-/-/-/-/-|
A|-------------|-0-----------|-3-----5-----|---2---------|
E|-3-----------|-------------|-------------|-3-3---------|
but one          crowded       lead wreck and ruin


Strum chorus chords for the second verse and chorus, except:

  |-C-----------|-D-----------|
Not for the likes of you and me


Bridge:
||:-D-----------|-------------|-Bm----Am----|-G-----------:||
the green-eyed    harpy of      salt lands    
she takes into    hers          my hands               and she says


  |-Em----------|-A7----------|-Bm----Am----|-D-----------|-D-----------|
    boy I know   lyin'        o but then so am I          to this I said "O well..."


Solo = same chords as chorus.