Have you tabbed this for another instrument? Send it to us.

O Song
Written by Glenn Richards
guitar tab Sam Hardwick and JB

Electric guitar: ECDGBE.
Slide guitar: Standard tuning.

C(i) and C(ii) are the same chord, just with a different shape.

C/E       002010
Fadd9     10301x
G7/D      x2340x
C(i)      x02010
Em        0x2000
F         1x321x
Dm7/F     10021x
G         3x000x
Cadd9sus4 x0303x
C(ii)     x0505x
Csus4     x0301x
Csus2     x0001x
C5maj7    x0540x
F(b5)/C   x0320x
Cmaj7     x0200x
Cadd9     x0203x

 |  C/E         | Fadd9       | C/E         | Fadd9       | 
 |[electric guitar]
E|--------------|-------------|-------------|-------------|
B|--1-----------|-1-------1---|-1-------1---|-1-------1---|
G|--0-----------|-0-------0---|-0-------0---|-0-------0---|
D|--2-----------|-3-------3---|-2-------2---|-3-------3---|
C|--0-----------|-0-------0---|-0-------0---|-0-------0---|
E|--0-----------|-1-------1---|-0-------0---|-1-------1---|
  You don't keep me company, you all turn out wrong,

 |  C/E         | Fadd9       | G7/D        |             |
E|--------------|-------------|-------------|-------------|
B|--1-----------|-1-------1-1-|-------------|-0-------0---|
G|--0-----------|-0-------0-0-|-4-------4---|-4-------4---|
D|--2-----------|-3-------3-3-|-3-------3---|-3---3---3---|
C|--0-----------|-0-------0-0-|-2-------2---|-2---2---2---|
E|--0-----------|-1-------1-1-|-------------|-------------|
  if you are my daughters, if you are my sons,

 |  C/E         | Em          | F           | Dm7/F       |
E|--0-------0---|-------------|-------------|-------------|
B|--1-------1---|-0---0---0---|-1-------1---|-1-------1---|
G|--0-------0---|-0---0---0---|-2-------2---|-2-------2---|
D|--2-------2---|-2---2---2---|-3-------3---|-0-------0---|
C|--0-------0---|-x---x---x---|-x-------x---|-0-------0---|
E|--------------|-0---0---0---|-1-------1---|-1-------1---|
  I can only hold you inside for so long,

 |  Fadd9       | G           | C           |             |
E|--------------|-------------|-0-----------|-------------|
B|--1-------1---|-0-------0---|-1-------1---|-1-------0---|
G|--0-------0---|-0-------0---|-0-------0---|-0-----------|
D|--3-------3---|-0-------0---|-2-------2---|-2-----------|
C|--0-------0---|-x-------x---|-0-------0---|-0-----------|
E|--1-------1---|-3-------3---|-------------|-------------|
  O song, did I lead you on?

 |  C/E         | Fadd9       | C/E         | Fadd9       | 
E|--------------|-------------|-------------|-------------|
B|--1-------1---|-1-------1---|-1-------1---|-1-------1---|
G|--0-------0---|-0-------0---|-0-------0---|-0-------0---|
D|--2-------2---|-3-------3---|-2-------2---|-3-------3---|
C|--0-------0---|-0-------0---|-0-------0---|-0-------0---|
E|--0-------0---|-1-------1---|-0-------0---|-1-------1---|
  If you are my love, well love, what's wrong?

 |  C/E         | Fadd9       | G7/D        |             |
E|--------------|-------------|-------------|-------------|
B|--1-------1---|-1---1---1---|-0---0---0---|-0-------0---|
G|--0-------0---|-0---0---0---|-4---4---4---|-4---4---4---|
D|--2-------2---|-3---3---3---|-3---3---3---|-3---3---3---|
C|--0-------0---|-0---0---0---|-2---2---2---|-2---2---2---|
E|--0-------0---|-1---1---1---|-------------|-------------|
  You don't keep me company for near enough long,

 |  C/E         | Em          | F           | Dm7/F       |
E|--0-------0---|-------------|-------------|-------------|
B|--1-------1---|-0---0---0---|-1-------1---|-1-------1---|
G|--0-------0---|-0---0---0---|-2-------2---|-2-------2---|
D|--2-------2---|-2---2---2---|-3-------3---|-0-------0---|
C|--0-------0---|-x---x---x---|-x-------x---|-0-------0---|
E|--------------|-0---0---0---|-1-------1---|-1-------1---|
  I can't feel or touch you, or hold you for long,

 |  Fadd9       | G           | C           |             |
E|--------------|-------------|-0-----------|-------------|
B|--1-------1---|-0-----------|-1-------1---|-1-------0---|
G|--0-------0---|-0-----------|-0-------0---|-0-------0---|
D|--3-------3---|-0-----------|-2-------2---|-2-----------|
C|--0-------0---|-x---------x-|-0-------0---|-0-----------|
E|--1-------1---|-3-----------|-------------|-------------|
  O song, are you leading me on?

 |  Fadd9       | G           | C           |   
E|--------------|-------------|-0-----------|
B|--1-------1---|-0-------0---|-1-------1---|
G|--0-------0---|-0-------0---|-0-------0---|
D|--3-------3---|-0-------0---|-2-------2---|
C|--0-------0---|-x-------x---|-0-------0---|
E|--1-------1---|-3-------3---|-------------|
  O song, are you leading me on?

 |  C           | Cadd9sus4   | C(ii)       | Csus4       | Csus2      |
E|--0---0-------|-------------|-------------|-------------|------------|
B|--1-------1---|/3-------3---|-----5-------|-1---1---1---|--------1---|
G|--0-------0---|/0-------0---|-0---0---0---|-0---0---0---|-0------0---|
D|--2-------2---|/3-------3---|-5-------5---|-3---3---3---|-0------0---|
C|--0-------0---|/0-------0---|-0-------0---|-0---0---0---|-0------0---|
E|--------------|-------------|-------------|-------------|------------|

 |  Dm7/F       |             | G           |             |
 |[electric guitar]
E|--------------|-------------|-------------|-------------|
B|--------------|-------------|-0-----------|-0-----------|
G|----------2-2-|-2-------2---|-0-------0---|-0-----------|
D|----------0-0-|-0-------0---|-0-------0---|-0-----------|
C|----------0-0-|-0-------0---|-x-------x---|-x-----------|
E|--1-------1-1-|-1-------1---|-3-----------|-3-----------|
 |[slide guitar]
B|--------------|-------------|-------------|-----------8/|

 |  C5maj7      | F(b5)/C     | Cmaj7       | F(b5)/C     |
 |  Horns in.
E|--------------|-------------|-------------|-------------|
B|--0-------0---|-0-------0---|-0-------0---|-0-----------|
G|--4-------4---|-2-------2---|-0-------0---|-2-----------|
D|--5-------5---|-3-------3---|-2-------2---|-3-----------|
C|--0-------0---|-0-------0---|-0-------0---|-0-----------|
E|--------------|-------------|-------------|-------------|
 |  Slide slowly, holding notes as long as possible.
B|-/12----------|---------\10-|\8-------\5--|/10----------|

 |  C/E         | Fadd9       | G7/D        |             |
E|--------------|-------------|-------------|-------------|
B|--1-------1---|-1-----------|-0-----------|-0-----------|
G|--0-----------|-0-----------|-4-----------|-4-----------|
D|--2-----------|-3-----------|-3-----------|-3-----------|
C|--0-----------|-0-----------|-2-----------|-2-----------|
E|--0-----------|-1-----------|-------------|-------------|
 |
B|--------------|-------------|-------------|-----------8/|

 |  Cadd9       | Em          | F           | Dm7/F       |
E|--------------|-------------|-------------|-------------|
B|--3-------3---|-0---0---0---|-1-------1---|-1-----------|
G|--0-------0---|-0---0---0---|-2-------2---|-2-----------|
D|--2-------2---|-2---2---2---|-3-------3---|-0-----------|
C|--0-------0---|-x-----------|-x-----------|-0-----------|
E|--------------|-0-----------|-1-----------|-1-----------|
 |
B|-/12----------|-------------|-------------|-------------|

 |  Fadd9       | G           | C           |             |
E|--------------|-------------|-------------|-------------|
B|--1-----------|-0-----------|-1-----------|-------------|
G|--0-----------|-0-----------|-0-----------|-0-----------|
D|--3-----------|-0-----------|-2-----------|-2-----------|
C|--0-----------|-x-----------|-0-----------|-0-----------|
E|--1-----------|-3-----------|-------------|-------------|
 |
B|--------------|-10-\8--\5---|-5-----------|-------------|

 |  C/E         | Fadd9       | C/E         | Fadd9       | 
 |[electric guitar]
E|--------------|-------------|-------------|-------------|
B|--1-------1---|-1-------1---|-1---1---1---|-1-------1---|
G|--0-------0---|-0-------0---|-0---0---0---|-0-------0---|
D|--2-------2---|-3-------3---|-2---2---2---|-3-------3---|
C|--0-------0---|-0-------0---|-0---0---0---|-0-------0---|
E|--0-------0---|-1-------1---|-0---0---0---|-1-------1---|
  Friends come in time, and then they are gone,

 |  C/E         | Fadd9       | G7/D        |             |
E|--------------|-------------|-------------|-------------|
B|--1-----------|-1---1---1---|-------------|-0-------0---|
G|--0-----------|-0---0---0---|-4-------4---|-4-------4---|
D|--2-----------|-3---3---3---|-3-------3---|-3-------3---|
C|--0-----------|-0---0---0---|-2-------2---|-2-------2---|
E|--0-----------|-1---1---1---|-------------|-------------|
  I know what it's like to be floating along

 |  C/E         | Em          | F           | Dm7/F       |
E|--0-----------|-------------|-------------|-------------|
B|--1-----------|-0---0---0---|-1-------1---|-1-------1---|
G|--0-----------|-0---0---0---|-2-------2---|-2-------2---|
D|--2-----------|-2---2---2---|-3-------3---|-0-------0---|
C|--0-----------|-x---x---x---|-x-------x---|-0-------0---|
E|--------------|-0---0---0---|-1-------1---|-1-------1---|
  without a warm body to heap your cares on,

 |  Fadd9       | G           | C           |             |
E|--------------|-------------|-0-----------|-0-----------|
B|--1---1---1---|-0-------0---|-1-----------|-1---1---1---|
G|--0---0---0---|-0---0---0---|-0-----------|-0---0---0---|
D|--3---3---3---|-0---0---0---|-2-----------|-2---2---2---|
C|--0---0---0---|-x---x---x---|-0-----------|-0---0---0---|
E|--1---1---1---|-3---3---3---|-------------|-------------|
  O on and into the night.

 |  Fadd9       | G           | C           |             |
E|--------------|-------------|-0-----------|-0-----------|
B|--1-------1---|-0---0---0---|-1-------1---|-1---1---1---|
G|--0-------0---|-0---0---0---|-0-------0---|-0---0---0---|
D|--3-------3---|-0---0---0---|-2-------2---|-2---2---2---|
C|--0-------0---|-x---x---x---|-0-------0---|-0---0---0---|
E|--1-------1---|-3---3---3---|-------------|-------------|
  O on and into the night.

 |  Csus4       | C           |
E|--------------|-------------|
B|--1-------1---|-1---1---1---|
G|--0---0---0---|-0---0---0---|
D|--3---3---3---|-2---2---2---|
C|--0---0---0---|-0---0---0---|
E|--------------|-------------|

 |  C/E         | Fadd9       | C/E         | Fadd9       | 
E|--------------|-------------|-------------|-------------|
B|--1-------1---|-1-----------|-1-------1---|-1-----------|
G|--0-------0---|-0-----------|-0-------0---|-0-----------|
D|--2-------2---|-3-----------|-2-------2---|-3-----------|
C|--0-------0---|-0-----------|-0-------0---|-0-----------|
E|--0-------0---|-1-----------|-0-------0---|-1-----------|
  For I have been bad now for 20 years long,

 |  C/E         | Fadd9       | G7/D        |             |
E|--------------|-------------|-------------|-------------|
B|--1-------1---|-1-------1---|-------------|-0-----------|
G|--0-------0---|-0-------0---|-4-----------|-4-------4---|
D|--2-------2---|-3-------3---|-3-----------|-3-------3---|
C|--0-------0---|-0-------0---|-2-----------|-2-------2---|
E|--0-------0---|-1-------1---|-------------|-------------|
  for centuries you have been pure and strong

 |  C/E         | Em          | F           | Dm7/F       |
E|--0-----------|-------------|-------------|-------------|
B|--1-----------|-0---0---0---|-1-------1---|-1-----------|
G|--0-----------|-0---0---0---|-2-------2---|-2-----------|
D|--2-----------|-2---2---2---|-3-------3---|-0-----------|
C|--0-----------|-x---x---x---|-x-------x---|-0-----------|
E|--------------|-0---0---0---|-1-------1---|-1-------1---|
  If you thought me a good place to stay you were wrong,

 |  Fadd9       | G           | C           |             |
E|--------------|-------------|-0-----------|-------------|
B|--1-------1---|-0-----------|-1-------1---|-1-----------|
G|--0-------0---|-0-----------|-0-------0---|-0-------0---|
D|--3-------3---|-0-----------|-2-------2---|-2-------2---|
C|--0-------0---|-x-----------|-0-------0---|-0-------0---|
E|--1-------1---|-3-------3---|-------------|-------------|
  O song, did I lead you on?

 |  C/E         | Em          | F           | Dm7/F       |
E|--0-------0---|-------------|-------------|-------------|
B|--1-------1---|-0-----------|-1-------1---|-1-----------|
G|--0-------0---|-0-----------|-2-------2---|-2-----------|
D|--2-------2---|-2-----------|-3-------3---|-0-----------|
C|--0-------0---|-x-----------|-x-------x---|-0-----------|
E|--------------|-0-------0---|-1-------1---|-1-----------|
  If you thought me a good place to stay you were wrong,

 |  Fadd9       | G           | C           |             |
E|--------------|-------------|-0-----------|-------------|
B|--1-------1---|-0-------0---|-1-------1---|-1-----------|
G|--0-------0---|-0-------0---|-0-------0---|-0-----------|
D|--3-------3---|-0-------0---|-2-------2---|-2-----------|
C|--0-------0---|-x-------x---|-0-------0---|-0-----------|
E|--1-------1---|-3-------3---|-------------|-------------|
  O song, did I lead you on?

 |  Fadd9       | G           | C           |             |
E|--------------|-------------|-0-----------|-------------|
B|--1-------1---|-0-------0---|-1-----------|-1-----------|
G|--0-------0---|-0-------0---|-0-----------|-0-----------|
D|--3-------3---|-0-------0---|-2-----------|-2-----------|
C|--0-------0---|-x-------x---|-0-----------|-0-----------|
E|--1-------1---|-3-------3---|-------------|-------------|
  O song, did I lead you on?

 |  Fadd9       | G           | C           |             |
E|--------------|-------------|-0-----------|-------------|
B|--1-------1---|-0-------0---|-1-----------|-1-----------|
G|--0-------0---|-0-------0---|-0-----------|-0-----------|
D|--3-------3---|-0-------0---|-2-----------|-2-----------|
C|--0-------0---|-x-------x---|-0-----------|-0-----------|
E|--1-------1---|-3-------3---|-------------|-------------|
  O song, did I lead you on?

 |  C           |             |
E|--------------|-------------|
B|--1---1---1---|-1-----------|
G|--0---0---0---|-0-----------|
D|--2---2---2---|-2-----------|
C|--0---0---0---|-0-----------|
E|--------------|-------------|

 ||  Fadd9       | G           ||
 ||                  Play 5 times
E||--------------|-------------||
B||--1-----------|-1-----------||
G||o-0-----------|-0----------o||
D||o-3-----------|-2----------o||
C||--0-----------|-0-----------||
E||--------------|-------------||