I Owe You
Written by Glenn Richards

Tab by Sam Hardwick
Any corrections? indierocker93@hotmail.com

Acoustic guitar 1 (main part): E A D G C E

Acoustic guitar 2: E A D G C E
Acoustic guitar 3: E A D G C E

Chords:
Cadd#4    x32002
C         x32000
G/A       x02003
Gadd4     35540x
C(ii)     x32003
D7sus4    x5000x
Bm7       x2002x
Csus2/F#  2x000x
Gadd4(ii) 32000x
Bb6/9     65000x
Am7add4   x00000

 |  Cadd#4      C           | G/A         C           | Gadd4                   |
 |[acoustic guitar 1]
E|----2-----2-----0-----0---|---3-----3-----0-----0---|-------------------------|
C|------0-----0-----0-----0-|-----0-----0-----0-----0-|---0-----0-----0-----0---|
G|--------0-----------0-----|-------0-----------0-----|-----4-----4-----4-----x-|
D|--------------------------|-------------2-----------|-------5-----------5-----|
A|--3-----------3-----------|-0-----------------------|-------------5-----------|
E|--------------------------|-------------------------|-3-----------------------|

 |  C                       || C                        | C                       |
 |                           % (D.S.)
E|----0-----0-----0-----0---||----3-----------0---------|---0-----------0---------|
C|------0-----0-----0-----0-||------0---0-------0---0---|-----0---0-------0---0---|
G|--------0-----------0-----||o-------0---0-------0---0-|-------0---0-------0---0-|
D|--------------------------||o-------------2-----------|-------------2-----------|
A|--3-----------3-----------||--3-----------------------|-3-----------------------|
E|--------------------------||--------------------------|-------------------------|
                              I owe you,                I know I owe you        To
                                                    And I know you've been cryin',

 |  C                       | Gadd4                   | D7sus4                  |
E|----0-----0-----0-----0---|-------------------------|-------------------------|
C|------0-----0-----0-----0-|---0-----0-----0-----0---|---0-----0-----0-----0---|
G|--------0-----------0-----|-----4-----4-----4-----4-|-----0-----0-----0-----0-|
D|--------------2-----------|-------5-----------5-----|-------0-----------0-----|
A|--3-----------------------|-------------5-----------|-5-----------5-----------|
E|--------------------------|-3-----------------------|-------------------------|
    make your days            complete,             But havin' no money,
    I've been cryin'          too,                      Cryin' my heart,

 |  Bm7                     | Gadd4                   | C                       |
E|--------------------------|-------------------------|---0-----0-----0-----0---|
C|----2-----2-----0-----0---|---0-----0-----0-----0---|-----0-----0-----0-----0-|
G|------0-----0-----0-----0-|-----4-----4-----4-----4-|-------0-----------0-----|
D|--------0-----------0-----|-------5-----------5-----|-------------------------|
A|--2-----------2-----------|-------------5-----------|-3-----------3-----------|
E|--------------------------|-3-----------------------|-------------------------|
    nothin' to show       For all I do in the           places I go          But
    cryin' my liver,          Cryin' a dream I          drowned a river,      So

 |  Csus2/F#                | Gadd4(ii)               | Bb6/9                   |
E|--------------------------|-------------------------|-------------------------|
C|----0-----0-----0-----0---|---0-----0-----0-----0---|---0-----0-----0-----0---|
G|------0-----0-----0-----0-|-----0-----0-----0-----0-|-----0-----0-----0-----0-|
D|--------0-----------------|-------0-----------0-----|-------0-----------0-----|
A|--------------5-----------|-------------2-----------|-------------5-----------|
E|--2-----------------5-----|-3-----------------------|/6-----------------------|
    sloping shoulders,        shuffling feet,         I don't remember a
    cold a thought it'd make you shiver,                Having the package and

 |-1.------------------------||
 |  N.C                      ||
E|---------------------------||
C|----0-----0-----0-----0----||
G|------0-----0-----0-----0-o||
D|--0-----2-----4-----5-----o||
A|---------------------------||
E|---------------------------||
    person I meet...

 |-2.--
 |  N.C                     | C                       | G/A         C           |
 |[acoustic guitar 1]
E|--------------------------|---2-----2-----0-----0---|---3-----3-----0-----0---|
C|----0-----0-----0-----0---|-----0-----0-----0-----0-|-----0-----0-----0-----0-|
G|------0-----0-----0-----0-|-------0-----------0-----|-------0-----------0-----|
D|--0-----2-----4-----5-----|-------------------------|-------------2-----------|
A|--------------------------|-3-----------3-----------|-0-----------------------|
E|--------------------------|-------------------------|-------------------------|
 |[acoustic guitar 2]
E|--------------------------|-------------------------|-------------------------|
C|--------------------------|-------------------------|-------------------------|
G|--2-----4-----5-----7-----|-------------------------|-------------------------|
D|--------------------------|-5-----7-----9-----10----|-2-----4-----5-----7-----|
A|--------------------------|-------------------------|-------------------------|
E|--------------------------|-------------------------|-------------------------|
 |[acoustic guitar 3]
E|--------------------------|-------------------------|-------------------------|
C|--------------------------|-------------------------|-------------------------|
G|--2-----4-----5-----7-----|-------------------------|-------------------------|
D|--------------------------|-5-----7-----9-----10----|-2-----4-----5-----7-----|
A|--------------------------|-------------------------|-------------------------|
E|--------------------------|-------------------------|-------------------------|
    not deliver...

 |  Gadd4                   | C                       | Csus2/F#    Am7add4     |
E|--------------------------|---0-----0-----0---------|-------------------------|
C|----0-----0-----0-----0---|-----0-----0-----0---0---|---0-----0-----0-----0---|
G|------4-----4-----4-----4-|-------0-----------0-----|-----0-----0-----0-----0-|
D|--------5-----------5-----|-------------------------|-------0-----------0-----|
A|--------------5-----------|-3-----------3-----------|-------------0-----------|
E|--3-----------------------|-------------------------|-2-----------------------|
 |
E|--------------------------|-------------------------|---5---5---5---5---5---5-|
C|--------------------------|-------------------------|-6---6---6---6---6---6---|
G|--------------------------|-------------------------|-------------------------|
D|--7-----9-----10----12----|-12----------------------|-------------------------|
A|--------------------------|-------------------------|-------------------------|
E|--------------------------|-------------------------|-------------------------|
 |   *Natural harmonic
E|--------------------------|-------------------------|---5---5---5---5---5---5-|
C|--------------------------|-------------------------|-6---6---6---6---6---6---|
G|--------------------------|-------------------------|-------------------------|
D|--5*----------5-----4-----|-2-----------------------|-------------------------|
A|--------------------------|-------------------------|-------------------------|
E|--------------------------|-------------------------|-------------------------|

 |  Gadd4(ii)               | Bb6/9                   | N.C                     |
E|--------------------------|-------------------------|-------------------------|
C|----0-----0-----0-----0---|---0-----0-----0-----0---|---0-----0-----0-----0---|
G|------0-----0-----0-----0-|-----0-----0-----0-----0-|-----0-----0-----0-----0-|
D|--------0-----------0-----|-------0-----------0-----|-0-----2-----4-----5-----|
A|--------------2-----------|-------------5-----------|-------------------------|
E|--3-----------------------|/6-----------------------|-------------------------|
 |
E|----7---7---7---7---7---7-|-------------------------|-------------------------|
C|--7---7---7---7---7---7---|-7---7---7---9---9---9---|-11--11--11--12--12--12--|
G|--------------------------|-------------------------|-------------------------|
D|--------------------------|-------------------------|-------------------------|
A|--------------------------|-------------------------|-------------------------|
E|--------------------------|-------------------------|-------------------------|
 |
E|----7---7---7---7---7---7-|-------------------------|-------------------------|
C|--7---7---7---7---7---7---|-7---6---4---2---0-------|-------------------------|
G|--------------------------|---------------------4---|-2-----3-----4-----5-----|
D|--------------------------|-------------------------|-------------------------|
A|--------------------------|-------------------------|-------------------------|
E|--------------------------|-------------------------|-------------------------|

Play VESRE pattern for:

O and freedom, O what of freedom?
Hangin' o'er our bed,
Once suspended words are said
What was a chain becomes a thread,
O let it fall and then we'll see,
If I owe you then (to coda)

 |  N.C                     | C                       ||  Cadd#9                  ||                         ||
 |  Coda                      *Pause                      Strum        Play 11 times                         ||
E|--------------------------|-0*----------------------||--0-----------0-----------||-0-0-0-0-----------------||
C|----0-----0-----0-----0---|-0*----------------------||--3-----------0-----------||-3-3-3-0-----------------||
G|------0-----0-----0-----0-|-0*----------------------||o-0-----------0----------o||-0-0-0-0-----------------||
D|--0-----2-----4-----5-----|-2*----------------------||o-2-----------2----------o||-2-2-2-2/14--------------||
A|--------------------------|-3*----------------------||--3-----------3-----------||-3-3-3-3/15--------------||
E|--------------------------|-------------------------||--------------------------||-------------------------||
    who owes me?