This isn't finished, have you tabbed it? Send it to us.

Renaissance
Written by Glenn Richards

JB's boobtube

guitar tab by JB and Rebecca Barton

 e|-------------------------------------------------------------------------
Bb|-------------------------------------------------------------------------
 G|-5-----------7----------7------------------------------------------------
 D|-5-----------7----------7------------------------------------------------
 C|-3-----------5----------0------------------------------------------------
 E|-4-----------6----------5------------------------------------------------


 e|-------------------------------------------------------------------------
Bb|-------------------------------------------------------------------------
 G|----7--7-----5--5-----5--5-----3--3-----3--3-----2--2-----2--2-----2--2--
 D|----7--7-----5--5-----5--5-----3--3-----3--3-----3--3-----3--3-----3--3--
 C|-5--------3--------3--------2--------2--------0--------0--------0--------
 E|-------------------------------------------------------------------------
  

 e|----------------------------------------------------------------------------------------------------------------------------------------
Bb|----------------------------------------------------------------------------------------------------------------------------------------
 G|----------------------------------------------------------------------------------------------------------------------------------------
 D|----------------------------------------------------------------------------------------------------------------------------------------
 C|----------------------------------------------------------------------------------------------------------------------------------------
 E|----------------------------------------------------------------------------------------------------------------------------------------