Have you tabbed this for another instrument? Send it to us.

Rich Girl
Written by Glenn Richards
guitar tab by Tim Byron

Chords used:
           EADABE
Gadd2      320033
F#mb6      2x0022
Bm7        7x0077
Aadd4      540055
Cmaj6add2  870088
Fadd2      x87088
E5         0x6650
G5/E       0x9980
D          X900XX (the capital X's represent 10) 

[intro]
4 bars of Gadd2

[verse 1]
Gadd2
Then I asked about your forefathers
F#mb6
Were they murderous too?
Gadd2
You said it hadn't any merit
F#mb6
Upon the likes of me and you 
Bm7
So we buried them to their kind  
Aadd4
And we kicked off all their heads 
Gadd2
Funny little questions 
F#mb6
That are left better never ever said 

[verse 2]
Gadd2
So I asked about your dead mother 
F#mb6
Was she beautiful too?
Gadd2
Just a little bitter, woman
F#mb6
Than the likes of me and you 
Bm7
Well I'm no F. Scott Fitzgerald 
Aadd4
But I know a champagne birth
Gadd2
So was she light or heavy handed 
F#mb6
When she delivered you your words? 

[chorus]
Aadd4
I asked if you were lonely 
Cmaj6add2
You said it didn't matter
Fadd2 
These are old emotions 
F#mb6
We need to bury them and leave them 
Gadd2
Move onto something new 
Bm7                            Aadd4
We need to bury them and leave them 
                 Gadd2
Like I'm leaving you 

[verse 3]
Gadd2
So I had to make it anybody out there 
F#mb6
Writing songs about shit 
Gadd2
Well I know I'm not supposed to be
F#mb6 
Serious about it, but I'm serious about it 
Bm7                         Aadd4
But I don't want to find no backdoor 
                                 Gadd2
And I don't want to feel no other's arms
                                 F#mb6
Empty stuff comes better when I'm on my own 
                           Aadd4
And I make it so I'm on my own 

[chorus]
Aadd4        
You asked me I'f I'm lonely 
Cmaj6add2
I guess it doesn't matter 
Fadd2
These are old emotions 
F#mb6                               
We need to bury them and leave them... 

[middle 8]
Adam plays this:
e----------------------------------------------------------------------
b-5-5-5-5-5-5-5-5-5-5-5-5-5-5-5-5-5-8-8-8-8-8-8-8-8-8-8-8-8-8-8-8-8----
a----------------------------------------------------------------------
d----------------------------------------------------------------------
a----------------------------------------------------------------------
e----------------------------------------------------------------------
  ...home.
  E5                                G5/E     

e--------------------------------------------------------------2-------
b-5-5-5-5-5-5-5-5-5-5-5-5-5-5-5-5-5-8-8-8-8-8-8-8-8-8-8-8-8--/2---2-----
a----------------------------------------------------------------------
d----------------------------------------------------------------------
a----------------------------------------------------------------------
e----------------------------------------------------------------------
  E5                                G5/E                     F#mb6

while Glenn plays the chords underneath the tablature.

Gadd2
From the last romantic field 
F#mb6
And I go "oh-oh-oh-oh-oh-oh-oh"
Gadd2
You're the first sign of (?)
F#mb6
Then I tremble at the sight of you 

Bm7
All the things that fortify me 
Aadd4
Are the things that petrify you 
Gadd2
So you bury them and leave them 
F#mb6
And I dig them up on you 

Aadd4
I only asked if you were lonely 
Cmaj6add2
And you said it didn't matter 
Fadd2
These are old emotions 
F#mb6
Need to bury them and leave them 
Gadd2
Move onto something new 
Bm7
Need to bury them and leave them 
Aadd4
Leave their bodies in the backyard 
Bm7                           Aadd4
Need to bury them and leave them 
                 Gadd2
Like I'm leaving you 
Aadd4    Bm7      
Oh oh oh oh 
F#mb6    Gadd2
Oh oh oh oh 
Aadd4    Bm7      
Oh oh oh oh 
F#mb6    Gadd2
Oh oh oh oh 
D  Aadd4
[instrumental]

[outro]
Adam plays this...:
e----------------------------------------------------------------------
b-5-5-5-5-5-5-5-5-5-5-5-5-5-5-5-5-5-8-8-8-8-8-8-8-8-8-8-8-8-8-8-8-8----
a----------------------------------------------------------------------
d----------------------------------------------------------------------
a----------------------------------------------------------------------
e----------------------------------------------------------------------
  E5                                G5/E     

e----------------------------------------------------------------------
b-5-5-5-5-5-5-5-5-5-5-5-5-5-5-5-5-5-8-8-8-8-8-8-8-8-8-8-8-8-8-8-8-8----
a----------------------------------------------------------------------
d----------------------------------------------------------------------
a----------------------------------------------------------------------
e----------------------------------------------------------------------
  E5                                G5/E                   

e----------------------------------------------------------------------
b-5-5-5-5-5-5-5-5-5-5-5-5-5-5-5-5-5-8-8-8-8-8-8-8-8-8-8-8-8-8-8-8-8----
a----------------------------------------------------------------------
d----------------------------------------------------------------------
a----------------------------------------------------------------------
e----------------------------------------------------------------------
  E5                                G5/E     

e----------------------------------------------------------------------
b-5-5-5-5-5-5-5-5-5-5-5-5-5-5-5-5-5-8-8-8-8-8-8-8-8-8-8-8-8-8-8-8-8----
a----------------------------------------------------------------------
d----------------------------------------------------------------------
a----------------------------------------------------------------------
e----------------------------------------------------------------------
  E5                                G5/E                    F#mb6

and end on a Gadd2 chord.