Got a better tab than this? Send it to us.

Stop breathing
Written by Glenn Richards
guitar tab by Max Walker and Kaami Shah

Notes: when '/' is written, it represents a strum of a chord, NOT a slide (that's an 's').


Intro: (Eminormajor7)
e|-0-------------|
B|-4-------------|
G|-0-/////////---|
D|-2-------------|
A|-2-------------|
E|-4-------------|


VERSE chords:

   (Dmaj7)	     (A augmented7)			  "grain of 
an idea"
e||--9---------------|-9----------------||-9--------------|-0---------0---|
B||--10-////-/-////--|-0--////-/-////---||-10-////-/-////-|-10-////-/-0-/-|
G||*-11--------------|-10--------------*||-11-------------|-11--------9---|
D||*-(0)-------------|-11--------------*||----------------|---------------|
A||------------------|-(0)--------------||----------------|---------------|
E||------------------|------------------||----------------|---------------|
                             repeat x4 (?)

Lead guitar melody (for verse):

e|-12-11-10-9----9-|-----------------||
B|------------12---|-12-11--10-9-9-9-||
G|-----------------|-----------------||
D|-----------------|-----------------||
A|-----------------|-----------------||
E|-----------------|-----------------||


Prechorus (right after "grain of an idea"):
(Just open chords, but don't really play the bass notes)

e||------------------|------------------||
B||------------------|------------------||
G||*-Emaj----Gmaj----|-Cmaj------------*|| play twice
D||*-----------------|-----------------*||
A||------------------|------------------||
E||------------------|------------------||

Back to VERSE


Prechorus (distorted chords kick in):

			     A A/F#
e||------------------|---------0--0--||
B||------------------|---------0--2--||
G||*-Emaj----Gmaj----|-Cmaj----2--2-*|| play twice
D||*-----------------|---------2--0-*||
A||------------------|---------0--0--||
E||------------------|------------2--||


CHORUS:

   D
e|-2-------|--------|-----------|-2-------|---------|
B|-3-------|--------|-5----3----|-3-------|-7-------|
G|-2-/////-|-//////-|-2-//-2-//-|-0-/////-|-X-/////-|
D|-0-------|--------|-0----0----|-0-------|-4-------|
A|-0-------|--------|-0----0----|-2-------|---------|
E|---------|--------|-----------|---------|---------|

   D
e|-2-------|-----------|-2-------||----------------||
B|-3-------|-5----3----|-3-------||--5--7----3-----||
G|-2-/////-|-2-//-2-//-|-0-/////-||*-0--0----0----*||
D|-0-------|-0----0----|-0-------||*-0--0----0----*||
A|-0-------|-0----0----|-2-------||--4--5----2-----||
E|---------|-----------|---------||----------------||
					    repeat x4
		     Ebminor7
e||-----------------||-------------------------|
B||-----------------||-11----------------------|
G||*-(0)------0----*||-11----------------------|
D||*-(0)------7----*||-11----------------------|
A||--(0)------8-----||-------------------------|
E||--10-------8-----||-11----------------------|
	     repeat x3

Back to VERSE

Then PRECHORUS (distorted chords):

			     A A/F#
e||------------------|---------0--0--||
B||------------------|---------0--2--||
G||*-Emaj----Gmaj----|-Cmaj----2--2-*|| play twice
D||*-----------------|---------2--0-*||
A||------------------|---------0--0--||
E||------------------|------------2--||

Then modified CHORUS:

   D
e|-2-------|--------|-----------|-2-------|---------|
B|-3-------|--------|-5----3----|-3-------|-7-------|
G|-2-/////-|-//////-|-2-//-2-//-|-0-/////-|-X-/////-|
D|-0-------|--------|-0----0----|-0-------|-4-------|
A|-0-------|--------|-0----0----|-2-------|---------|
E|---------|--------|-----------|---------|---------|

   D
e|-2-------|-----------|-2-------||----------------||
B|-3-------|-5----3----|-3-------||--5--7----3-----||
G|-2-/////-|-2-//-2-//-|-0-/////-||*-0--0----0----*||
D|-0-------|-0----0----|-0-------||*-0--0----0----*||
A|-0-------|-0----0----|-2-------||--4--5----2-----||
E|---------|-----------|---------||----------------||
					    repeat x4
Quiet Bit ("traces...shoelaces" etc)

e||-------------|-------------||-----------------------------------------------------|
B||--11----10---|--11---------||-11--------------------------------------------------|
G||*-12----11---|--12--------*||-12---ad nauseum-------------------------------------|
D||*-13----12---|--10--------*||-10--------------------------------------------------|
A||-------------|-------------||-----------------------------------------------------|
E||-------------|-------------||-----------------------------------------------------|
				keep playing until distorted guitar 
kicks in again

Play CHORUS (maybe include some extra bars of D if necessary)
END


Original tab by Max Walker, posted by isbybus@y...