Have you tabbed this for a different instrument? Send it to us.

Stranger Strange
Written by Glenn Richards
guitar tab by Rebecca Barton
strings by Sam Hardwick
4/4, A major
/ indicates a strum of the same chord.  It's not always there - just strum it how you hear it.

During the verse, T|--- indicates the guitar chords played and S|--- indicates the chords played by
the strings.


e|-------------------------|-------------------------|-------------------------|-------------------------|
B|-------------------------|-------------------------|-------------------------|-------------------------|
G|-------------------------|-------------------------|-------------------------|-------------------------|
D|-------------------------|-------------------------|-------------------------|-------------------------|
A|-------------------------|-------------------------|-------------------------|----------------------0h2|
E|-------------------------|-------------------------|-------------------------|-------------------0h2---|

 |-1-----2-----3-----4-----|-1-----2-----3-----4-----|-1-----2-----3-----4-----|-1-----2-----3-----4-----|


   A/C#
e|-------------------------|-------------------------|-------------------------|-------------------------|
B|-------2--------2--/-/--/|----/--/-----/--/--------|-------2--------2--/-/--/|----/--/-----/--/--------|
G|-------2--------2--/-/--/|----/--/-----/--/--------|-------2--------2--/-/--/|----/--/-----/--/--------|
D|-------2--------2--/-/--/|----/--/-----/--/--------|-------2--------2--/-/--/|----/--/-----/--/--------|
A|s4--------------4--/-/--/|----/--/-----/--/-----0h2|s4--------------4--/-/--/|----/--/-----/--/-----0h2|
E|-------------------------|-------------------0h2---|-------------------------|-------------------0h2---|
      some go high and very low                             none too different or the same you know


   D                                                   A/C#
e|-------2--------2--/-/--/|----/--/-----/--/--------|-------------------------|-------------------------|
B|-------3--------3--/-/--/|----/--/-----/--/--------|-------2--------2--/-/--/|----/--/-----/--/--------|
G|-------2--------2--/-/--/|----/--/-----/--/--------|-------2--------2--/-/--/|----/--/-----/--/--------|
D|-0--------------0--/-/--/|----/--/-----/--/--------|-------2--------2--/-/--/|----/--/-----/--/--------|
A|-------------------------|----------------------0h2|s4--------------4--/-/--/|----/--/-----/--/-----0h2|
E|-------------------------|-------------------0h2---|-------------------------|-------------------0h2---|
   I know cos I've seen them come and go


   A/C#
e|-------------------------|-------------------------|-------------------------|-------------------------|
B|-------2--------2--/-/--/|----/--/-----/--/--------|-------2--------2--/-/--/|----/--/-----/--/--------|
G|-------2--------2--/-/--/|----/--/-----/--/--------|-------2--------2--/-/--/|----/--/-----/--/--------|
D|-------2--------2--/-/--/|----/--/-----/--/--------|-------2--------2--/-/--/|----/--/-----/--/--------|
A|s4--------------4--/-/--/|----/--/-----/--/-----0h2|s4--------------4--/-/--/|----/--/-----/--/-----0h2|
E|-------------------------|-------------------0h2---|-------------------------|-------------------0h2---|
       when summer comes the valley hums                   with medicine trucks on the sidewalk


   D                                                   A                     A7
e|-------2--------2--/-/--/|----/--/-----/--/--------|-------0--------0-/----0-|----/--/--/-/-/----/--/--|
B|-------3--------3--/-/--/|----/--/-----/--/--------|-------2--------2-/----2-|----/--/--/-/-/----/--/--|
G|-------2--------2--/-/--/|----/--/-----/--/--------|-------2--------2-/----0-|----/--/--/-/-/----/--/--|
D|-0--------------0--/-/--/|----/--/-----/--/--------|-2--------------2-/----2-|----/--/--/-/-/----/--/--|
A|-------------------------|-------------------------|-0--------------0-/----0-|----/--/--/-/-/----/--/--|
E|-------------------------|-------------------------|-------------------------|-------------------------|
  Laid out those hands could be holy


T|-D/F#--------------------|-E-----------------------|-A-----------------------|-F#m---------------------|
S|-D-----------------------|-C#m---------------------|-Bm----------------------|-A-----------------------|
     stranger strange, hard earned familiar,                       I've got no jokes 


T|-D/F#--------------------|-E-----------------------|
S|-D-----------------------|-C#m---------------------|
And you hit me up for more than just my shrapnel and smokes.

   A                         D                         A                         D
e|-------------------------|-------------------------|-------------------------|-------------------------|
B|-------2--------2-----2--|-------3-----3-----------|-------2--------2-----2--|-------3-----3-----------|
G|-------------------------|----0--------------------|-------------------------|----0--------------------|
D|-------------------------|-4-----------------------|-2-----------------------|-4-----------------------|
A|-0-----------------------|-------------------------|-------------------------|----------------------0h2|
E|-------------------------|-------------------------|-------------------------|-------------------0h2---|
 |
S|-A-----------------------|-(A)---------------------|-(A)---------------------|-(A)---------------------|

   A/C#
e|-------------------------|-------------------------|-------------------------|-------------------------|
B|-------2--------2--/-/--/|----/--/-----/--/--------|-------2--------2--/-/--/|----/--/-----/--/--------|
G|-------2--------2--/-/--/|----/--/-----/--/--------|-------2--------2--/-/--/|----/--/-----/--/--------|
D|-------2--------2--/-/--/|----/--/-----/--/--------|-------2--------2--/-/--/|----/--/-----/--/--------|
A|s4--------------4--/-/--/|----/--/-----/--/-----0h2|s4--------------4--/-/--/|----/--/-----/--/-----0h2|
E|-------------------------|-------------------0h2---|-------------------------|-------------------0h2---|
      some go high and very low                             none too different or the same you know


   D                                                   A                     A7
e|-------2--------2--/-/--/|----/--/-----/--/--------|-------0--------0-/----0-|----/--/--/-/-/----/--/--|
B|-------3--------3--/-/--/|----/--/-----/--/--------|-------2--------2-/----2-|----/--/--/-/-/----/--/--|
G|-------2--------2--/-/--/|----/--/-----/--/--------|-------2--------2-/----0-|----/--/--/-/-/----/--/--|
D|-0--------------0--/-/--/|----/--/-----/--/--------|-2--------------2-/----2-|----/--/--/-/-/----/--/--|
A|-------------------------|-------------------------|-0--------------0-/----0-|----/--/--/-/-/----/--/--|
E|-------------------------|-------------------------|-------------------------|-------------------------|
   I know cos I've seen them come and go


T|-D/F#--------------------|-E-----------------------|-A-----------------------|-F#m---------------------|
S|-D-----------------------|-C#m---------------------|-Bm----------------------|-A-----------------------|
         stranger strange a stranger should be listening       like a river to the end of my curdled song 


T|-D/F#--------------------|-E-----------------------|-A-----------------------|-A7---------------------|
S|-D-----------------------|-C#m---------------------|-A-----------------------|-A7---------------------|
         nobody knows what madness could come along


T|-D/F#--------------------|-E-----------------------|-A-----------------------|-F#m---------------------|
S|-D-----------------------|-C#m---------------------|-Bm----------------------|-A-----------------------|
now if you see a being borne into a trap, you free it      they know kindness when they see it


T|-D-----------------------|-E-----------------------|
S|-D-----------------------|-C#m---------------------|
   stranger strange, would it come if you could call it?


   A                         D                         A                         D
e|-------------------------|-------------------------|-------------------------|-------------------------|
B|-------2--------2-----2--|-------3-----3-----------|-------2--------2-----2--|-------3-----3-----------|
G|-------------------------|----0--------------------|-------------------------|----0--------------------|
D|-------------------------|-4-----------------------|-2-----------------------|-4-----------------------|
A|-0-----------------------|-------------------------|-------------------------|----------------------0h2|
E|-------------------------|-------------------------|-------------------------|-------------------0h2---|


guitar solo, picked over verse chords:
    D/F#                      E                         A                         F#m
e|:----2--------0-h2-p0-----|-------------------------|----0--------2--0--------|-------------------------|
B|:----------3-----------3--|-0--0--0--2-----3--------|-2--------2--------3--2--|-------------------------|
G|:-------------------------|-------------------------|-------------------------|-------------------------|
D|:-0-----------------------|-------------------------|-------------------------|-4-----------------------|
A|:-0-----------------------|-------------------------|-------------------------|-------------------------|
E|:-------------------------|-------------------------|-------------------------|-------------------------|
 |
S|:-D/F#--------------------|-C#m---------------------|-Bm----------------------|-A-----------------------|


                                                     |-play this the first time only----------------------|
   D/F#                      E                       | A                         A7
e|----2--------0-h2-p0-----|-------------------------|-------------------------|-------------------------:|
B|----------3-----------3--|----------------0--------|-2--------------------0--|-3--3-----2-----0--------:|
G|-2-----------------------|-1--1-----2--------------|-------------------------|-------------------------:|
D|-------------------------|-------------------------|-------------------------|-------------------------:|
A|-------------------------|-------------------------|-------------------------|-------------------------:|
E|-------------------------|-------------------------|-------------------------|-------------------------:| x2
 |
S|-D/F#--------------------|-C#m/G#------------------|-A-----------------------|-(A)---------------------:|

   A/C#
e|-------------------------|-------------------------|-------------------------|-------------------------|
B|-------2--------2--/-/--/|----/--/-----/--/--------|-------2--------2--/-/--/|----/--/-----/--/--------|
G|-------2--------2--/-/--/|----/--/-----/--/--------|-------2--------2--/-/--/|----/--/-----/--/--------|
D|-------2--------2--/-/--/|----/--/-----/--/--------|-------2--------2--/-/--/|----/--/-----/--/--------|
A|s4--------------4--/-/--/|----/--/-----/--/-----0h2|s4--------------4--/-/--/|----/--/-----/--/-----0h2|
E|-------------------------|-------------------0h2---|-------------------------|-------------------0h2---|
 |
S|-Aaddb5------------------|-A-----------------------|-Aaddb5------------------|-A-----------------------|
      some go high and very low                             none too different or the same you know

   D                                                   A/C#
e|-------2--------2--/-/--/|----/--/-----/--/--------|-------------------------|-------------------------|
B|-------3--------2--/-/--/|----/--/-----/--/--------|-------2--------2--/-/--/|----/--/-----/--/--------|
G|-------2--------2--/-/--/|----/--/-----/--/--------|-------2--------2--/-/--/|----/--/-----/--/--------|
D|-0--------------0--/-/--/|----/--/-----/--/--------|-------2--------2--/-/--/|----/--/-----/--/--------|
A|-------------------------|----------------------0h2|s4--------------4--/-/--/|----/--/-----/--/-----0h2|
E|-------------------------|-------------------0h2---|-------------------------|-------------------0h2---|
   I know cos I've seen them come and go

   Aaddb5            pp
e|-------------------------|-------------------------|-------------------------|-------------------------|
B|-------------------------|-------------------------|-------------------------|-------------------------|
G|-------------------------|-------------------------|-------------------------|-------------------------|
D|-----shhhhhhhhhhhh-------|-------------------------|-------------------------|-------------------------|
A|-4-----------------------|----------------------0h2|s4-----------------------|----------------------0h2|
E|-------------------------|-------------------0h2---|-------------------------|-------------------0h2---|
          It's quiet now                               the streets are silent


   D                                                   A/C# f               A7
e|-------------------------|-------------------------|-0-----/--------/--/--0--|-/--/--/--/-/-/----/--/--|
B|-------------------------|-------------------------|-2-----/--------/--/--2--|-/--/--/--/-/-/----/--/--|
G|-------------------------|-------------------------|-2-----/--------/--/--0--|-/--/--/--/-/-/----/--/--|
D|-0-----------------------|-------------------------|-2-----/--------/--/--2--|-/--/--/--/-/-/----/--/--|
A|-------------------------|-------------------------|-0-----/--------/--/--0--|-/--/--/--/-/-/----/--/--|
E|-------------------------|-------------------------|-------------------------|-/--/--/--/-/-/----/--/--|
   music out of the          arms of community          flies                    fliiiiiiiiiiiiiiiiiiiies
 

T|:-D/F#--------------------|-E-----------------------|-A-----------------------|-F#m---------------------|
S|:-D-----------------------|-C#m---------------------|-Bm----------------------|-A-----------------------|
         stranger Strange I knew I knew you,                  now the bug lights in the bank imbue you
       stranger strange, though the earth be an anvil,   i'm not waiting for the hammer to fall,


T|-D/F#--------------------|-E-----------------------|-A-----------------------|-A7----------------------:| x2
S|-D-----------------------|-C#m---------------------|-A-----------------------|-A7----------------------:|
with eyes like decals and    a voice like an iron        file. 
   i'm not waiting for anything at all. 


T|-D/F#--------------------|-E-----------------------|-A-----------------------|-F#m---------------------|
S|-D-----------------------|-C#m---------------------|-Bm----------------------|-A-----------------------|
       stranger strange, though the earth be an anvil,   i'm not waiting for the hammer to fall, 


T|-D/F#--------------------|-E-----------------------|
S|-D-----------------------|-C#m---------------------|
   i'm not waiting for anything at all.


    A                         D                      x3  A                         D      ritenuto
e|:-------------------------|-------------------------:|-------------------------|-------------------------|---|
B|:-------2--------2-----2--|-------3-----3-----------:|-------2--------2-----2--|-------3-----------------|---|
G|:-------------------------|----0--------------------:|-------------------------|-------------------------|---|
D|:-2-----------------------|-4-----------------------:|-2-----------------------|-4-----------------------|---|
A|:-0-----------------------|-------------------------:|-------------------------|----------0--------0--2--|-4-|
E|:-------------------------|-------------------------:|-------------------------|-------------0--2--------|---|
 |
S|:-A-----------------------|-A-----------------------:|