Tasman Awakens
Written by Glenn Richards
guitar tab by Rebecca Barton

    G        Em        G/D      Cmaj7     G/B      G/A
e|:-3--------0-------|-3--------0-------|-3--------3-------|
B|:-0--0-----0--0----|-0--0-----0--0----|-0--0-----0--0----|
G|:-0-----0--0-----0-|-0-----0--0-----0-|-0-----0--0-----0-|
D|:-5--------2-------|-0--------2-------|-0--------0-------|
A|:------------------|----------3-------|-2--------0-------|
E|:------------------|------------------|------------------|
    Honey g. candy in  condiment cupb.d unwax it unplug it what
    Smoke .  woodfi. unholy sp. can yousurmise .   well you have

   Em                 G/D      Cmaj7     G        G6        G4       G2
e|-0--------0-------|-3--------0-------|-3--------0-------|-3--------3-------|
B|-0--0-----0--0----|-0--0-----0--0----|-0--------0-------|-1--------3-------|
G|-0-----0--0-----0-|-0-----0--0-----0-|-0--0-----0--0----|-0--0-----0--0----|
D|-2--------2-------|-0--------2-------|-0-----0--0-----0-|-0-----0--3-----3-|
A|------------------|----------3-------|-2--------2-------|-3--------0-------|
E|------------------|------------------|-3--------3-------|-3--------3-------|
     You discover in August    nights l. children walled in papers   drawn up .
      draw. courage.  stings.  eyes what.saw when.stood.   yard.     let him un

   Em                 D                  Am                 Cm
e|-0----------------|-2----------------|-0----------------|-3----------------|
B|-0----------------|-3----------------|-1----------------|-4----------------|
G|-0--fill-(typ.)---|-2----------------|-2----------------|-5----------------|
D|-2----------------|-0----------------|-2----------------|-5----------------|
A|-2----------------|-0----------------|-0----------------|-3----------------|
E|-0----------------|-2----------------|------------------|------------------|
   life                                  that k. truth .    crack . knife
   dress her                             what.    next you. failed to under

1-----------------------------------------------------------------------------|
   G/D      Cmaj7     G/B     G/A        G        G6    C   G/B
e|-3--------0-------|-3-------3--------|-3--------0-----0-|-3----------------:|
B|-3--------0-------|-0-------0--------|-0--------0-----1-|-0----------------:|
G|-4--------0-------|-0-------0--------|-0--------0-----0-|-0----------------:|
D|-0--------2-------|-0-------0--------|-0--------0-----2-|-0----------------:|
A|-x--------3-------|-2-------0--------|-2--------2-----3-|-2----------------:|
E|-x--------x-------|-x-------x--------|-3--------3-----x-|-x----------------:|

2-----?
   G                                     Am                 Cm
e|-3----------------|-3----------------|-0----------------|-3----------------|
B|-3----------------|-3----------------|-1----------------|-4----------------|
G|-0----------------|-0----------------|-2----------------|-5----------------|
D|-0----------------|-0----------------|-2----------------|-5----------------|
A|-2----------------|-2----------------|-0----------------|-3----------------|
E|-3----------------|-3----------------|------------------|------------------|
   stand                                 what.   next as he took her by the

   G7                 D/C                G/B               G/A
e|-2----------------|-2----------------|-3----------------|-3----------------|
B|-0----------------|-3----------------|-0----------------|-0----------------|
G|-0----------------|-2----------------|-0----------------|-0----------------|
D|-0----------------|-0----------------|-0----------------|-0----------------|
A|-2----------------|-3----------------|-2----------------|-0----------------|
E|-3----------------|-x----------------|-x----------------|-x----------------|
   hand
 
    G/D      G/C       G/B     G/A        G        G6    C   G/B
e|:-3--------3-------|-3-------3--------|-3--------0-----0-|-3----------------:|
B|:-0--------0-------|-0-------0--------|-0--------0-----1-|-0----------------:|
G|:-0--------0-------|-0-------0--------|-0--------0-----0-|-0----------------:|
D|:-0--------0-------|-0-------0--------|-0--------0-----2-|-0----------------:|
A|:-x--------3-------|-2-------0--------|-2--------2-----3-|-2----------------:|
E|:-x--------x-------|-x-------x--------|-3--------3-----x-|-x----------------:|
the little  lights are burning bright in  you x2

   Em       G/D       C       G/B         B        A         G        E       x3
e|-0--------3-------|-0-------3--------|:-2--------0-------|-3--------0-------:|
B|-0--------0-------|-1-------0--------|:-4--------2-------|-3--------0-------:|
G|-0--------0-------|-0-------0--------|:-4--------2-------|-0--------1-------:|
D|-2--------0-------|-2-------0--------|:-4--------2-------|-0--------2-------:|
A|-2--------x-------|-3-------2--------|:-2--------0-------|-2--------2-------:|
E|-0--------x-------|-x-------x--------|:-x--------x-------|-3--------0-------:|

   B        A         G        F#         Em                 D        Dsus4
e|-2--------0-------|-3--------2-------|:-0----------------|-2--------3-------:|
B|-4--------2-------|-3--------2-------|:-0----------------|-3--------3-------:|
G|-4--------2-------|-4--------3-------|:-0----------------|-2--------0-------:|
D|-4--------2-------|-5--------4-------|:-2----------------|-0--------0-------:|
A|-2--------0-------|-5--------4-------|:-2----------------|-0--------0-------:|
E|-x--------x-------|-x--------x-------|:-0----------------|-2--------3-------:|

   Em       D         G        C         G/D      Em        D/F#     Gmaj7
e|-0--------2-------|-3--------0-------|-3--------0-------|-2--------2-------|
B|-0--------3-------|-3--------1-------|-0--------0-------|-0--------0-------|
G|-0--------2-------|-0--------0-------|-0--------0-------|-x--------0-------|
D|-2--------0-------|-0--------2-------|-0--------2-------|-1--------0-------|
A|-2--------0-------|-2--------3-------|-x--------2-------|-2--------2-------|
E|-0--------2-------|-3--------0-------|-x--------0-------|-3--------3-------|

   Gsus2          C   G/B
e|-3--------------0-|-3----------------|
B|-3--------------1-|-0----------------|
G|-0--------------0-|-0----------------|
D|-3--------------2-|-0----------------|
A|-0--------------3-|-2----------------|
E|-3--------------x-|-x----------------|

   G        Em        G/D      Cmaj7     G/B      G/A
e|-3--------0-------|-3--------0-------|-3--------3-------|
B|-0--------0-------|-0--------0-------|-0--------0-------|
G|-0--------0-------|-0--------0-------|-0--------0-------|
D|-5--------2-------|-0--------2-------|-0--------0-------|
A|-x--------x-------|-x--------3-------|-2--------0-------|
E|-x--------x-------|-x--------x-------|-x--------x-------|
     Orphan leaves  arrested trees div.  street . gutter as the

   Em                 G/D      Cmaj7     G        G6        G4       G2
e|-0--------0-------|-3--------0-------|-3--------0-------|-3--------3--------|
B|-0--------0-------|-0--------0-------|-0--------0-------|-1--------3--------|
G|-0--------0-------|-0--------0-------|-0--------0-------|-0--------0--------|
D|-2--------2-------|-0--------0-------|-0--------0-------|-0--------3--------|
A|-x--------x-------|-x--------3-------|-2--------2-------|-3--------0--------|
E|-x--------x-------|-x--------x-------|-3--------3-------|-3--------3--------|
     sunset shudders. Prospect.night .   children malled .  mauling. brethren and

 
   Em                 D                  Am                 Cm
e|-0----------------|-2----------------|-0----------------|-3----------------|
B|-0----------------|-3----------------|-1----------------|-4----------------|
G|-0----------------|-2----------------|-2----------------|-5----------------|
D|-2----------------|-0----------------|-2----------------|-5----------------|
A|-2----------------|-0----------------|-0----------------|-3----------------|
E|-0----------------|-2----------------|------------------|------------------|
   like                                  that k. truth is a needle and a

   G                  G                  Am                 Cm
e|-3----------------|-3----------------|-0----------------|-3----------------|
B|-3----------------|-3----------------|-1----------------|-4----------------|
G|-0----------------|-0----------------|-2----------------|-5----------------|
D|-0----------------|-0----------------|-2----------------|-5----------------|
A|-2----------------|-2----------------|-0----------------|-3----------------|
E|-3----------------|-3----------------|------------------|------------------|
   knife                                 that k. truth is a needle and a 

   G7                 D/C                G/B               G/A
e|-2----------------|-2----------------|-3----------------|-3----------------|
B|-0----------------|-3----------------|-0----------------|-0----------------|
G|-0----------------|-2----------------|-0----------------|-0----------------|
D|-0----------------|-0----------------|-0----------------|-0----------------|
A|-2----------------|-3----------------|-2----------------|-0----------------|
E|-3----------------|-x----------------|-x----------------|-x----------------|
   knife

    G/D      G/C       G/B     G/A        G        G6    C   G/B
e|:-3--------3-------|-3-------3--------|-3--------0-----0-|-3----------------:|
B|:-0--------0-------|-0-------0--------|-0--------0-----1-|-0----------------:|
G|:-0--------0-------|-0-------0--------|-0--------0-----0-|-0----------------:|
D|:-0--------0-------|-0-------0--------|-0--------0-----2-|-0----------------:|
A|:-x--------3-------|-2-------0--------|-2--------2-----3-|-2----------------:|
E|:-x--------x-------|-x-------x--------|-3--------3-----x-|-x----------------:|
the little  lights are burning bright in  you

   G/D      G/C       G/B     G/A        Em                 Em9
e|-3--------3-------|-3-------3--------|-0----------------|-1----------------|
B|-0--------0-------|-0-------0--------|-0----------------|-0----------------|
G|-0--------0-------|-0-------0--------|-0----------------|-0----------------|
D|-0--------0-------|-0-------0--------|-2----------------|-2----------------|
A|-x--------3-------|-2-------0--------|-2----------------|-2----------------|
E|-x--------x-------|-x-------x--------|-0----------------|-0----------------|
   little  lights are burning bright in  you                              They

   Em       G/D       C       Am         Em       Em9       G/D      Cmaj
e|-0--------3-------|-0-------0--------|-0--------1-------|-3--------0-------|
B|-0--------0-------|-1-------1--------|-0--------0-------|-0--------0-------|
G|-0--------0-------|-0-------2--------|-0--------0-------|-0--------0-------|
D|-2--------0-------|-2-------2--------|-2--------2-------|-0--------2-------|
A|-2--------x-------|-3-------0--------|-2--------2-------|-x--------3-------|
E|-0--------x-------|-x-------0--------|-0--------0-------|-x--------x-------|
  tell you what you   have    to     do 

   G/B      G/A       Em       D
e|-3--------3-------|-0--------2-------||
B|-0--------0-------|-0--------3-------||
G|-0--------0-------|-0--------2-------||
D|-0--------0-------|-2--------0-------||
A|-2--------0-------|-2--------0-------||
E|-x--------x-------|-0--------2-------||