Vernoona
Written by Glenn Richards

JB's boobtube

Tab by Sam Hardwick
Any corrections? indierocker93@hotmail.com

Electric guitar: D A D F# A D
Strings & keyboard arranged for guitar D A D F# A D

The drums at the start
 R|-o-o-o-o-o-o-|-o-ooo-o-o-o-|-o-o-o-o-o-o-|-o-ooo-o-o-o-|
 S|-------O-----|-------O-----|-------O-----|-------O-----|
 B|-o---------o-|-o-----------|-o---------o-|-o-----------|



  |[electric guitar]
D |-0--0--0--0--0--0--|-0--0--0--0--0--0--|-0--0--0--0--0--0--|-0--0--0--0--0--0--|
A |-9--9--9--7--7--7--|-5--5--5--4--4--4--|-2--2--2--0--0--0--|-0--0--0--0--0--0--|
F#|-0--0--0--0--0--0--|-0--0--0--0--0--0--|-0--0--0--0--0--0--|-0--0--0--0--0--0--|
D |-0--0--0--0--0--0--|-0--0--0--0--0--0--|-0--0--0--0--0--0--|-5--5--5--9--9--9--|
A |-9--9--9--7--7--7--|-5--5--5--4--4--4--|-2--2--2--0--0--0--|-0--0--0--0--0--0--|
D |-0--0--0--0--0--0--|-0--0--0--0--0--0--|-0--0--0--0--0--0--|-5--5--5--9--9--9--|


  |[electric guitar]
  |                     x2
D |--0--0--0--0--0--0---||-0--0--0--0--0--0--|-0--0--0--0--0--0--|-0--0--0--0--0--0--|
A |--0--0--0--0--0--0---||-0--0--0--0--0--0--|-0--0--0--0--0--0--|-0--0--0--0--0--0--|
F#|--0--0--0--0--0--0--o||-0--0--0--0--0--0--|-7--7--7--7--7--7--|-7--7--7--7--7--7--|
D |--7--7--7--12-12-12-o||-12-12-12-12-12-12-|-7--7--7--7--7--7--|-7--7--7--7--7--7--|
A |--0--0--0--0--0--0---||-0--0--0--0--0--0--|-0--0--0--0--0--0--|-0--0--0--0--0--0--|
D |--7--7--7--12-12-12--||-12-12-12-12-12-12-|-7--7--7--7--7--7--|-7--7--7--7--7--7--|
  |[strings]
D |---------------------||-------------------|-------------------|-------------------|
A |---------------------||-------------------|----------7-----7--|-------------------|


D |--0--0--0--0--0--0--|-0--0--0--0--0--0--|-0--0--0--0--0--0--|-0--0--0--0--0--0--|
A |--0--0--0--0--0--0--|-0--0--0--0--0--0--|-9--9--9--9--9--9--|-9--9--9--9--9--9--|
F#|--7--7--7--7--7--7--|-7--7--7--7--7--7--|-0--0--0--0--0--0--|-0--0--0--0--0--0--|
D |--7--7--7--7--7--7--|-7--7--7--7--7--7--|-0--0--0--0--0--0--|-0--0--0--0--0--0--|
A |--0--0--0--0--0--0--|-0--0--0--0--0--0--|-9--9--9--9--9--9--|-9--9--9--9--9--9--|
D |--7--7--7--7--7--7--|-7--7--7--7--7--7--|-0--0--0--0--0--0--|-0--0--0--0--0--0--|
  |
D |--0-----------------|----------7--------|-------------------|-------------------|
A |-----------7--------|-9-----------------|-9-----------------|-------------------|


D |--0--0--0--0--0--0--|-0--0--0--0--0--0--|
A |--9--9--9--9--9--9--|-9--9--9--9--9--9--|
F#|--0--0--0--0--0--0--|-0--0--0--0--0--0--|
D |--0--0--0--0--0--0--|-0--0--0--0--0--0--|
A |--9--9--9--9--9--9--|-9--9--9--9--9--9--|
D |--0--0--0--0--0--0--|-0--0--0--0--0--0--|


D |--0--0--0--0--0--0--|-0--0--0--0--0--0--|-0--0--0--0--0--0--|-0--0--0--0--0--0--|
A |--9--9--9--7--7--7--|-5--5--5--4--4--4--|-2--2--2--0--0--0--|-0--0--0--0--0--0--|
F#|--0--0--0--0--0--0--|-0--0--0--0--0--0--|-0--0--0--0--0--0--|-0--0--0--0--0--0--|
D |--0--0--0--0--0--0--|-0--0--0--0--0--0--|-0--0--0--0--0--0--|-5--5--5--9--9--9--|
A |--9--9--9--7--7--7--|-5--5--5--4--4--4--|-2--2--2--0--0--0--|-0--0--0--0--0--0--|
D |--0--0--0--0--0--0--|-0--0--0--0--0--0--|-0--0--0--0--0--0--|-5--5--5--9--9--9--|
    Autumn leaves are flying (each a baby's


D |--0--0--0--0--0--0---|-0--0--0--|-0--0--0--0--0--0--|-0--0--0--0--0--0--|
A |--0--0--0--0--0--0---|-7--7--7--|-5--5--5--4--4--4--|-2--2--2--0--0--0--|
F#|--0--0--0--0--0--0---|-0--0--0--|-0--0--0--0--0--0--|-0--0--0--0--0--0--|
D |--7--7--7--12-12-12--|-0--0--0--|-0--0--0--0--0--0--|-0--0--0--0--0--0--|
A |--0--0--0--0--0--0---|-7--7--7--|-5--5--5--4--4--4--|-2--2--2--0--0--0--|
D |--7--7--7--12-12-12--|-0--0--0--|-0--0--0--0--0--0--|-0--0--0--0--0--0--|
    brittle boat). The season's dying


  |[electric guitar]
D |--0--0--0--0--0--0--|-0--0--0--0--0--0--|-0--0--0--0--0--0--|-0--0--0--0--0--0--|
A |--0--0--0--0--0--0--|-0--0--0--0--0--0--|-0--0--0--0--0--0--|-0--0--0--0--0--0--|
F#|--0--0--0--0--0--0--|-0--0--0--0--0--0--|-0--0--0--0--0--0--|-7--7--7--7--7--7--|
D |--5--5--5--9--9--9--|-7--7--7--12-12-12-|-12-12-12-12-12-12-|-7--7--7--7--7--7--|
A |--0--0--0--0--0--0--|-0--0--0--0--0--0--|-0--0--0--0--0--0--|-0--0--0--0--0--0--|
D |--5--5--5--9--9--9--|-7--7--7--12-12-12-|-12-12-12-12-12-12-|-7--7--7--7--7--7--|
  |[strings]
D |--------------------|-------------------|-------------------|-------------------|
A |--------------------|-------------------|-------------------|----------7-----7--|
   (winter's mottled pigeon throat).


D |--0--0--0--0--0--0--|-0--0--0--0--0--0--|-0--0--0--0--0--0--|-0--0--0--0--0--0--|
A |--0--0--0--0--0--0--|-0--0--0--0--0--0--|-0--0--0--0--0--0--|-9--9--9--9--9--9--|
F#|--7--7--7--7--7--7--|-7--7--7--7--7--7--|-7--7--7--7--7--7--|-0--0--0--0--0--0--|
D |--7--7--7--7--7--7--|-7--7--7--7--7--7--|-7--7--7--7--7--7--|-0--0--0--0--0--0--|
A |--0--0--0--0--0--0--|-0--0--0--0--0--0--|-0--0--0--0--0--0--|-9--9--9--9--9--9--|
D |--7--7--7--7--7--7--|-7--7--7--7--7--7--|-7--7--7--7--7--7--|-0--0--0--0--0--0--|
  |
D |--------------------|-0-----------------|----------7--------|-------------------|
A |--------------------|----------7--------|-9-----------------|-9-----------------|
   Sings the coo-cool air...


D |-0--0--0--0--0--0--|-0--0--0--0--0--0--|-0--0--0--0--0--0--|
A |-9--9--9--9--9--9--|-9--9--9--9--9--9--|-9--9--9--9--9--9--|
F#|-0--0--0--0--0--0--|-0--0--0--0--0--0--|-0--0--0--0--0--0--|
D |-0--0--0--0--0--0--|-0--0--0--0--0--0--|-0--0--0--0--0--0--|
A |-9--9--9--9--9--9--|-9--9--9--9--9--9--|-9--9--9--9--9--9--|
D |-0--0--0--0--0--0--|-0--0--0--0--0--0--|-0--0--0--0--0--0--|


D ||--0--0--0--0--0--0--|-0--0--0--0--0--0--|-0--0--0--0--0--0--|-0--0--0--0--0--0--|
A ||--9--9--9--7--7--7--|-5--5--5--4--4--4--|-2--2--2--0--0--0--|-0--0--0--0--0--0--|
F#||o-0--0--0--0--0--0--|-0--0--0--0--0--0--|-0--0--0--0--0--0--|-0--0--0--0--0--0--|
D ||o-0--0--0--0--0--0--|-0--0--0--0--0--0--|-0--0--0--0--0--0--|-5--5--5--9--9--9--|
A ||--9--9--9--7--7--7--|-5--5--5--4--4--4--|-2--2--2--0--0--0--|-0--0--0--0--0--0--|
D ||--0--0--0--0--0--0--|-0--0--0--0--0--0--|-0--0--0--0--0--0--|-5--5--5--9--9--9--|
    Ooh...

                        x2
D |--0--0--0--0--0--0---||-0--0--0--0--0--0--|
A |--0--0--0--0--0--0---||-0--0--0--0--0--0--|
F#|--0--0--0--0--0--0--o||-0--0--0--0--0--0--|
D |--7--7--7--12-12-12-o||-12-12-12-12-12-12-|
A |--0--0--0--0--0--0---||-0--0--0--0--0--0--|
D |--7--7--7--12-12-12--||-12-12-12-12-12-12-|

The old sun's pale and rising (write it down yr little note),
He's pale and rising (fold it up yr little note),

Waning, pale the air...

                                                                                    x2
D ||--7--7--7--7--7--7--|-9--9--9--9--9--9--|-7--7--7--7--7--7--|-4--4--4--4--4--4--||
A ||--9--9--9--9--9--9--|-10-10-10-10-10-10-|-9--9--9--9--9--9--|-5--5--5--5--5--5--||
F#||o-0--0--0--0--0--0--|-0--0--0--0--0--0--|-0--0--0--0--0--0--|-0--0--0--0--0--0-o||
D ||o-0--0--0--0--0--0--|-0--0--0--0--0--0--|-0--0--0--0--0--0--|-0--0--0--0--0--0-o||
A ||--0--0--0--0--0--0--|-0--0--0--0--0--0--|-0--0--0--0--0--0--|-0--0--0--0--0--0--||
D ||--0--0--0--0--0--0--|-0--0--0--0--0--0--|-0--0--0--0--0--0--|-0--0--0--0--0--0--||

 
 D |--7--7--7--7--7--7--|-9--9--9--9--9--9--|-10-10-10-10-10-10-|-7--7--7--7--7--7--|
 A |--9--9--9--9--9--9--|-10-10-10-10-10-10-|-12-12-12-12-12-12-|-9--9--9--9--9--9--|
 F#|--0--0--0--0--0--0--|-0--0--0--0--0--0--|-0--0--0--0--0--0--|-0--0--0--0--0--0--|
 D |--0--0--0--0--0--0--|-0--0--0--0--0--0--|-0--0--0--0--0--0--|-0--0--0--0--0--0--|
 A |--0--0--0--0--0--0--|-0--0--0--0--0--0--|-0--0--0--0--0--0--|-0--0--0--0--0--0--|
 D |--0--0--0--0--0--0--|-0--0--0--0--0--0--|-0--0--0--0--0--0--|-0--0--0--0--0--0--|


 D |--7--7--7--7--7--7--|-9--9--9--9--9--9--|-10-10-10-10-10-10-|-10h12-12-12-12-12-|
 A |--9--9--9--9--9--9--|-10-10-10-10-10-10-|-12-12-12-12-12-12-|-12-12-12-12-12-12-|
 F#|--0--0--0--0--0--0--|-0--0--0--0--0--0--|-0--0--0--0--0--0--|-0--0--0--0--0--0--|
 D |--0--0--0--0--0--0--|-0--0--0--0--0--0--|-0--0--0--0--0--0--|-0--0--0--0--0--0--|
 A |--0--0--0--0--0--0--|-0--0--0--0--0--0--|-0--0--0--0--0--0--|-0--0--0--0--0--0--|
 D |--0--0--0--0--0--0--|-0--0--0--0--0--0--|-0--0--0--0--0--0--|-0--0--0--0--0--0--|

Autumn leaves are flying (time to find yr winter coat),
To cease from crying, sing instead, my little Vernoona.
Sing instead, my little Vernoona.
Sing instead, my little Vernoona.