Got a better tab than this? Send it to us.

Victoria's Secrets
Written by Glenn Richards
guitar tab by Ben Jackson

VICTORIA’S SECRETS  (Capo 2)

INTRO
---0---0---0---0---0---0--         ---0---0---0---2---
---1---3—--1---0---1---3--	   ---1---0---1---3---
---0---0---0---0---0---0--	   ---0---0---0---2---
---2---2---2---2---2---2--	   ---2---2---2---0---
---3---3---3---3---3---3--	   ---3---3---3-------
--------------------------	   -------------------

VERSE
---0--------0------0---------------
---0--------1------1-----7----5----
---0--------0------2-----7----5----
---0--------2------2-----7----5----
---2--------3------0-----5----3----
---0-------------------------------

  How   Labours  Piss   Gall

(Arpeggiate the Barred D and C, as you slide down the strings)


---3--------0------0---------------
---3--------1------2------7----5----
---0--------0------0------7----5----
---0--------2------2------7----5----
---2--------3------0------5----3----
---3-------------------------------

Gleaming  Sabres  Falls  All

CHORUS
---0--------0------3----0-|--------0---
---1--------1------3----1-|--1-----2---
---2--------0------0----0-|--2-----0---
---2--------2------0----2-|--3-----2---
---0--------3------2----3-|--3-----0---
-------------------3------|--1---------

                            “Chorus 2nd time”


---0--------0------3----0-----0-----1----3----0-------0---
---1--------1------3----1-----1-----3----3----1---1---2---
---2--------0------0----0-----2-----2----0----0---2---0---
---2--------2------0----2-----2-----0----0----2---3---2---
---0--------3------2----3-----0----------2----3---3---0---
-------------------3---------------------3--------1-------



Back into the Intro piece, then into verse 3

Chorus, then end by adding on and F, G, then finish with the intro piece again