Got a better tab than this? (surely someone has) Send it to us.

Mt Wellington Reverie
Written by Glenn Richards
guitar tab by Rebecca Barton

12/8 (most of the time)
CAPO 2ND

e|-------------------------|-------------------------|
B|---1-----1-----1-----1---|---1-----1-----1-----1---|
G|-----0-----0-----0-----0-|-----0-0---0-2---0-0---0-|
D|-------------------0-----|-3-----------------------|
A|-------1-----3-----------|-------------------------|
E|-3-----------------------|-------------------------|


e|---0-----0-----0-----0---|-------------------------|-------------------------|
B|-----1-----1-----1-----1-|---0-----0-----0-----0---|-----0-----0-------------|
G|-2-----2-----2-----2-----|-----0-----0-0---0-----0-|---0-----0---------------|
D|-2-----------------------|-------------------------|-------------2-----------|
A|-----------3-0-----------|-------2-----------2-----|-------2-----------------|
E|-------------------------|-3-----------------------|-0-----------------------|


e|:-------------------------|-------------------------|---0-----0-----0-----0---|-0-----------------------|
B|:---1-----1-----1-----1---|---1-----1-----1-----1---|-----1-----1-----1-----1-|-0-1-----1-----1-----1---|
G|:-----0-----0-----0-----0-|-----0-0---0-2---0-0---0-|-2-----2-----2-----2-----|-0---2-----2-----2-----2-|
D|:-------------------0-----|-3-----------------------|-------------------------|-2-----0-----2-----0-----|
A|:-------1-----3-----------|-------------------------|-------------------------|-2-----------------------|
E|:-3-----------------------|-------------------------|-------------------------|-0-----------------------|
you can't walk             you can't lie still        pair of black            mountain top
I were one of two            thought to make           shimmied out locks        rowed that thing

   G           C             F           Dm            Em    G     Em    G       Em         G
e|-3-----------0-----------|-1-0-----0-----0-----0---|-------------------------|-------------------------|
B|-3-----------1-------1---|-1---1-----1-----1-----1-|---0-----0-----0-----0---|---0-----0-----0-----0---|
G|-0-----------0---------0-|-2-----2-----2-----2-----|-----0-----0-----0-----0-|-----0-----0-----0-----0-|
D|-0-----------2-----------|-3-----------------------|-------------------------|-------------------------|
A|-2-----------3-----------|-3-----------------------|-------------------------|-------------------2-----|
E|-3-----------------------|-1-----------------------|-0-----3-----0-----3-----|-0-----1-----3-----------|
  bunks are empty           breakfast lasts           warm bread                 bastards will never get to me
   Derwent twists            moving thing              who'd a thought           that vehicle would become our coffin

   Em    Dm    Em    Dm      Em    F     Am            Em    Dm    Em    Dm      Em    F     Am
e|-------5-----------5-----|-------------------------|-------5-----------5-----|-------------------------|
B|---5-----------5---------|-----3-----1-----0h1p0---|---5-----------5---------|-----3-----1-----0h1p0---|
G|-----5-----------5-------|---4-----2-----2-------2-|-----5-----------5-------|---4-----2-----2-------2-|
D|-5-----------5-----------|-5-----3-----2-----------|-5-----------5-----------|-5-----3-----2-----------|
A|-------------------------|-------------------------|-------------------------|-------------------------|
E|-------------------------|-------------------------|-------------------------|-------------------------|
   somebody knows            somebody always knows     somebody knows            somebody always knows
   so many souls             so many souls in          so many souls             so many souls


first time:
                 F                         G
e|---0-----0---|-------------------------|-------------------------:|
B|-----1-----1-|-----0h1p0-----1-----1---|---0h1s3s1p0-------------:|
G|-2-----0-----|---2-------2-----2-----2-|-------------------------:|
D|-------------|-3-----------3-----3-----|-5-----------------------:|
A|-------------|-------------------------|-------------------------:|
E|-------------|-------------------------|-------------------------:| x 2
   where a body goes

second time:
e|---0-----0---|---1-----1-----1-----1---|---3-----3-----3-----3---|
B|-----1-----1-|-----2-----2-----2-----2-|-----4-----4-----4-----4-|
G|-2-----0-----|-------3-----------3-----|-------5-----------5-----|
D|-------------|-3-----------3-----------|-5-----------5-----------|
A|-------------|-------------------------|-------------------------|
E|-------------|-------------------------|-------------------------|
   left me a little daughter               left me a girl

    F                         G                         Em
e|-------------------------|-------------------------|-------------------------|
B|-------------------------|-------------------------|-------------------------|
G|-------------------------|-------------------------|-------------------------|
D|-------------------------|-------------------------|-------------------------|
A|-------------------------|-------------------------|-------------------------|
E|-------------------------|-------------------------|-------------------------|
   left them alone           tired old world         o where are they now?


    Bm                              G       Em
F|:-------------------------|-------------|-------------------------:|
 |:                         |             |                         :|
D|:-------------------------|-------------|-------------------------:|
 |:                         |             |                         :|
B|:-------------------------|-------------|-------------------------:|
 |:                         |             |                         :|
G|:-------------------------|-------------|-------------------------:|
 |:                         |             |                         :|
E|:-------------------------|-------------|-------------------------:| x2
          O   O                                  O   O
       -O---O---                              -O---O---
          O   O                                  O   O
       -O---O---                              -O---O---

    Am                              F       Dm
e|:-------------------------|-------------|-------------------------:|
B|:-------------------------|-------------|-------------------------:|
G|:-------------------------|-------------|-------------------------:|
D|:-------------------------|-------------|-------------------------:|
A|:-------------------------|-------------|-------------------------:|
E|:-------------------------|-------------|-------------------------:| x2


   F#m                       G                         A
F|-------------------------|-------------------------|-------------------------|
 |                         |                         |                         |
D|-------------------------|-------------------------|-------------------------|
 |                         |                         |                         |
B|-------------------------|-------------------------|-------------------------|
 |                         |                         |                         |
G|-------------------------|-------------------------|-------------------------|
 |                         |                         |                         |
E|-------------------------|-------------------------|------O---O--------------|
         O   O                                            O   O
      -O---O---                                          ---O---O-
         O   O                                            O   O
      -O---O---


    Em                        F                         G
e|-------------------------|-------------------------|-------------------------|
B|-------------------------|-------------------------|-------------------------|
G|-------------------------|-------------------------|-------------------------|
D|-------------------------|-------------------------|-------------------------|
A|-------------------------|-------------------------|-------------------------|
E|-------------------------|-------------------------|-------------------------|



e|-------------------------|-------------------------|-------------------------|-------------------------|
B|-------------------------|-------------------------|-------------------------|-------------------------|
G|-------------------------|-------------------------|-------------------------|-------------------------|
D|-------------------------|-------------------------|-------------------------|-------------------------|
A|-------------------------|-------------------------|-------------------------|-------------------------|
E|-------------------------|-------------------------|-------------------------|-------------------------|
I were one of a gang         clearing and felling      best of us                goes about it clean and willin'


e|-------------------------|-------------------------|-------------------------|-------------------------|
B|-------------------------|-------------------------|-------------------------|-------------------------|
G|-------------------------|-------------------------|-------------------------|-------------------------|
D|-------------------------|-------------------------|-------------------------|-------------------------|
A|-------------------------|-------------------------|-------------------------|-------------------------|
E|-------------------------|-------------------------|-------------------------|-------------------------|
   we're shotoing them       shooting them        they're runnin' we're          do it without a thought or care


e|-------------------------|-------------------------|-------------------------|-------------------------|
B|-------------------------|-------------------------|-------------------------|-------------------------|
G|-------------------------|-------------------------|-------------------------|-------------------------|
D|-------------------------|-------------------------|-------------------------|-------------------------|
A|-------------------------|-------------------------|-------------------------|-------------------------|
E|-------------------------|-------------------------|-------------------------|-------------------------|
   so many lies              so many lies been told    so many lies              so many lies been told


e|-------------------------|-------------------------|-------------|-------------------------|
B|-------------------------|-------------------------|-------------|-------------------------|
G|-------------------------|-------------------------|-------------|-------------------------|
D|-------------------------|-------------------------|-------------|-------------------------|
A|-------------------------|-------------------------|-------------|-------------------------|
E|-------------------------|-------------------------|-------------|-------------------------|
   so many lies              so many lies been told    we'll none    old


e|-------------------------|-------------------------|-------------------------|-------------------------|---|
B|-------------------------|-------------------------|-------------------------|-------------------------|---|
G|-------------------------|-------------------------|-------------------------|-------------------------|---|
D|-------------------------|-------------------------|-------------------------|-------------------------|---|
A|-------------------------|-------------------------|-------------------------|-------------------------|---|
E|-------------------------|-------------------------|-------------------------|-------------------------|---|
not gracefully            not peacefully               blind old land            this dreamin' land    some deiman's land